Give Kudos?
Are you sure you want to give kudos to axehappy?

Add To Songbook?
Are you sure you want to add this song to your songbook?


2,722 bands | 35,151 songs
Search: Register FREE! | Login
Browse Songs:
Browse Bands:
Tool Panel
Discuss This Song

1 2 3 4 5



Johnny Cash - Wanted Man (Tab)
Submitter: axehappy (40) on 3/24/02 1 comment
Month Views: 11 | Total Views: 12,685
Moderator: JDNELSON | Report This Song?
Song Tools

Comment

Songbook

Kudos

Show Chords

Print

Johnny Cash - Wanted Man (lead)

By axehappy - axehappy at countrytabs.com

***********************************************************************

h   =   hammer-on                             p   =   pulloff

b   =   bend                                  br  =   bend & release

\   =   slide down                            /   =   slide up

***********************************************************************


MAIN RIFF IN SONG (used in intro and various other places)

            G                  Am                D

E---------------------------------------------------------------
B--------------------------------------------------3---3-3---3--
G--0----------0-0---0--0---0----2-2p0-0-2-2p0------0h2-2-0h2-2--
D----------------2p0----0h2-0--------2-----------0-0-----0------
A------------2-----------------0---------0---3b-----------------
E---0-1-2-2h3---------------------------------------------------

             C            G

E--------------------------------|
B--------------------------------|
G--2-0-2b-2b-2br-0------0--0--0--|
D-----------------3p0------------|
A---------------------------1b---|
E--------------------6\5--3------|


ENDING RIFF

   G       D                 C            G  

E-----------2---2---2-2---2------------------------------------|
B-----------3p1-3p1-3-3p1-3------------------------------------|
G----------------------------5br-3---------0---------0---0-----|
D----------0---0---0-----0-0------5\3-0---------0-2p0-0--0-----|
A--1/2-3-4-----------------------------1h2---1h2---------------|
E-----------------------------------------3------------2-2h3---|
 Comments (click here to add a non-facebook comment)
What recording is this from? This doesn't sound anything like the one I have in D.
-DB13 | 8/14/2005
Home | FAQs | Privacy | Terms | Advertise | Contact
Top 100 Tab Sites