Give Kudos?
Are you sure you want to give kudos to taylor7458?

Add To Songbook?
Are you sure you want to add this song to your songbook?


2,865 bands | 36,224 songs
Search: Register FREE! | Login
Browse Songs:
Browse Bands:
Tool Panel
Discuss This Song

1 2 3 4 5



Josh Abbott Band - Taste (Tab)
Submitter: taylor7458 (1) on 5/24/10
Month Views: 9 | Total Views: 8,543
Moderator: nathan sebesta | Report This Song?
Song Tools

Comment

Songbook

Kudos

Show Chords

Print

Riff 1 Solo to come later
-----------------------------------------------------------------
-----------------------------------------------------------------
-9--11--13----9--11--14--13-11-----9--11--13----9--11--14--13-11-
-----------------------------------------------------------------
-----------------------------------------------------------------
-----------------------------------------------------------------


-----------------------------------------------------------------
-12--10-9-10--12--10--9--10--------------------------------------
------------------------------13-13-13-13-13-14-13-11--11-11-11--
-----------------------------------------------------------------
-----------------------------------------------------------------
-----------------------------------------------------------------


-----------------------------------------------------------------
-----------------------------------------------------------------
-11-11-12-11-----------------------------------------------------
-----------------------------------------------------------------
-----------------------------------------------------------------
-----------------------------------------------------------------
 Comments (click here to add a non-facebook comment)
Home | FAQs | Privacy | Terms | Advertise | Contact
Top 100 Tab Sites