Give Kudos?
Are you sure you want to give kudos to Nedz18?

Add To Songbook?
Are you sure you want to add this song to your songbook?


2,626 bands | 34,394 songs
Search: Register FREE! | Login
Browse Songs:
Browse Bands:
Tool Panel
Discuss This Song

1 2 3 4 5





Keith Urban - But For The Grace Of God (livin Right Now) (Tab)
Album: Keith Urban (1999)
Submitter: Nedz18 (1) on 12/13/05 6 comments
Month Views: 28 | Total Views: 8,127
Moderator: urbanriffs | Report This Song?
Song Tools

Comment

Songbook

Kudos

Show Chords

Print

No capo
STANDARD TUNING

TO PLAY THIS SONG, PALM MUTE ALL THE CHORDS.  YOU WILL HAVE TO WATCH AND LISTEN 
TO THE DVD TO UNDERSTAND WHAT I'M TALKING ABOUT.  
I'LL ADD A SOUNDCLIP ON HERE SOMETIME, A BUDDY AND ME ARE STILL WORKING ON IT.
KEITH ALSO DOES A LOT OF LITTLE FILLS THROUGHOUT THE SONG, IF YOU WATCH THE DVD
YOU CAN PICK THEM UP PRETTY EASY, THEY AREN'T TO HARD AT ALL. 
ANY SUGGESTIONS OR IF YOU FOUND A PLACE I SCREWED UP PLEASE LET ME KNOW! 


E---------------------5-----------3---------------------5----------3---------
B---------------------6-----------3---------------------6----------3---------
G---------------------5-----------5---------------------5----------5---------
D---------------------7-9-7-5-----5---------------------7----------5---------
A---------3--0--3/5---5-------5---3---------3--0--3/5---5-----3----3---------
E---3--5------------------------------3--5--------------------1--------------
  (INTRO)                                     


E---3------------------------5----------------------------------------
B---3------------------------6----------------------------------------
G---5------------------------5----------------------------------------
D---5------------------------7----------------------------------------
A---3------------------------5----------------------------------------
E---------------------------------------------------------------------
   I CAN HEAR THE NEIGHBORS, THEY'RE ARGUING AGAIN

E--------------------------------------------3------------------------
B--------------------------------------------3------------------------
G--------------------------------------------5------------------------
D--------------------------------------------5------------------------
A--3-----------------------------------------3------------------------
E--1------------------------------------------------------------------
  AND THERE HASN'T BEEN PEACE ON OUR STREET, SINCE WHO KNOWS WHEN

E--3-------------------------5----------------------------------------
B--3-------------------------6----------------------------------------
G--5-------------------------5----------------------------------------
D--5-------------------------7----------------------------------------
A--3-------------------------5----------------------------------------
E---------------------------------------------------------------------
  I DON'T MEAN TO LISTEN IN, BUT THE SHOUTIN IS SO LOUD

E---------------------------------3-----------------------------------
B---------------------------------3-----------------------------------
G---------------------------------5-----------------------------------
D---------------------------------5-----------------------------------
A--3------------------------------3-----------------------------------
E--1------------------------------------------------------------------
  I TURN UP THE RADIO TO DROWN IT OUT

E---5~--------------3~--------------3~--------------  (Not sure about
B---6~--------------3~--------------1~--------------   the "Silently I
G---5~--------------5~--------------0~--------------   say, a lil prayer"
D---7~--------------5~--------------0~--------------   part yet?)
A---5~--------------3~--------------2~--------------
E-----------------------------------3~--------------
  AND SILENTLY I SAY,   A LITTLE PRAYER,      

E--5-----------------------------------------------3------------------
B--6-----------------------------------------------3------------------
G--5-----------------------------------------------5------------------
D--7-----------------------------------------------5------------------
A--5-----------------------------------------------3------------------
E---------------------------------------------------------------------
  BUT FOR THE GRACE OF GOD GO I, I MUST HAVE BEEN BORN A LUCKY GUY

E---------------5--------------------------------------------3--------
B---------------6--------------------------------------------5--------
G---------------5--------------------------------------------5--------
D---------------7--------------------------------------------5--------
A---------------5-----------------------3--------------------3--------
E---------------------------------------1-----------------------------
  HEAVEN ONLY KNOWS HOW I'VE BEEN BLESSED, WITH THE GIFT OF YOUR LOVE

E------------5--------------------------------3-----------------------
B------------6--------------------------------3-----------------------
G------------5--------------------------------5-----------------------
D------------7--------------------------------5-----------------------
A------------5--------------------------------3-----------------------
E---------------------------------------------------------------------
  AND I LOOK AROUND AND ALL I SEE, IS YOUR HAPPINESS EMBRACING ME

E--5----------------------------------------3-------------------------
B--6----------------------------------------3-------------------------
G--5----------------------------------------5-------------------------
D--7----------------------------------------5-------------------------
A--5-------------------3--------------------3-------------------------
E----------------------1----------------------------------------------
  OH LORD I'D BE LOST, BUT FOR THE GRACE OF GOD


~THE REST OF THE SONG IS BASICALLY LIKE THIS FIRST PART~
 Comments (click here to add a non-facebook comment)
Sounds great dude. Keith is a hell of a guitar player and this song is very well made.
Nice Soundbyte as well.
-madtabber | 12/13/2005
During the "Silently I say..." part that is incomplete he strums the Dminor and then slides up to the 7th fret and strums an Eminor7. Hope that helps...
-boardboy17 | 12/14/2005
God bless ya',been lookin' 4 this tab forever!
-hacking_in2002 | 12/14/2005
for the "silently i say" it sounds like hes playing this:

e-------------------3----3--
B--6--------8------1-1---1--
G--5-------7------2---2-----
D--7------9------3----------
A--5-----7---------------2--
E------------------------3--

then for the ending i think he just plays around with this:

e-----3------3-----3----3-----
B----1-1------1-----1---1----
G---2---2---2-----0-----0----
D--3-------3------------0h2--
A-----------------------3----
E----------------3-----------

F - xx3213, C - x32013, G - 320013
-CM129688 | 12/18/2005
Great song from the DVD...pretty darn good job on the tab..thanks
-jeffschneckloth | 1/23/2006
this is a great tab, but i need some help on the fills...
-vezina043 | 2/4/2006
Home | FAQs | Privacy | Terms | Advertise | Contact
Top 100 Tab Sites