Give Kudos?
Are you sure you want to give kudos to axehappy?

Add To Songbook?
Are you sure you want to add this song to your songbook?


2,722 bands | 35,151 songs
Search: Register FREE! | Login
Browse Songs:
Browse Bands:
Tool Panel
Discuss This Song

1 2 3 4 5



Keith Urban - Jeans On (Solo)
Album: Golden Road (2002)
Submitter: axehappy (49) on 2/13/03 4 comments
Month Views: 9 | Total Views: 8,365
Moderator: urbanriffs | Report This Song?
Song Tools

Comment

Songbook

Kudos

Show Chords

Print

Keith Urban  -  Jeans On (solo)

By axehappy  -  axehappy at countrytabs.com


There's two guitars in the lead solo...
First is the slide guitar, which I've tabbed in Double Dropped-D
tuning, which means you tune both of your E strings to D.
As the low E string isn't used in this solo, you could get away
with just changing the tuning on your high E string.

The second part is a standard tuned electric guitar.

I don't know if this is how Keith would play all of this, but
its the closest I could get without seeing him play!


***************************************************************************

/   =   slide up                                   \   =   slide down

~   =   vibrato                                    x   =   dead note

pbr =   pre-bend & release                         p   =   pulloff

b   =   bend 

***************************************************************************



SLIDE PART (Double Dropped-D tuning)


D--10/12-12-12-10/12-12-12-10/12-12-12-10/12-12-12-12/14-------
B--10/12-12-12-10/12-12-12-10/12-12-12-10/12-12---------12/14--
G--------------------------------------------------------------
D--------------------------------------------------------------
A--------------------------------------------------------------
D--------------------------------------------------------------


D--7/9--7/9\7----------------------------------|
B------------0-7/9-----------------------------|
G-----------------7/9-7/9-7/9-7/9\7-6-7/9~~~---|
D----------------------------------------------|
A----------------------------------------------|
D----------------------------------------------|



ELECTRIC GUITAR (No slide, standard tuning)


  rake
E---------------------------5--------7---------------------5---------7/10b~~~|
B-------------------------------------------------------------------0--------|
G---------------3/5--4pbr-p2--6pbr-p4----------3/5--4pbr-p2--6pbr-p4---------|
D----x---4pbr-p2------------------------4pbr-p2------------------------------|
A---x------------------------------------------------------------------------|
E--x--7\---------------------------------------------------------------------|


 Comments (click here to add a non-facebook comment)
The reason that sounds like it's got the
high e dropped to a d is because thats a
Dobro in the Dobro D tuning, its not a
guitar ... I dunno if you know that or
not, :-D --Nick
-NDN | 5/6/2004
I think it is on a dobro but you should find an easier way without detuning.

-Derek_Cave99 | 3/1/2005
I think you have a typo...

the part that is on the g string...

G--3/5--

should be on the b string...
-mooman2679 | 6/11/2005
Derek... theres no was to do it with a slide without detuning. If you wanna do it without a slide, move everything on the high d string down 2 frets.
-KU_isbestever | 7/13/2005
Home | FAQs | Privacy | Terms | Advertise | Contact
Top 100 Tab Sites