Give Kudos?
Are you sure you want to give kudos to Derek_Cave99?

Add To Songbook?
Are you sure you want to add this song to your songbook?


2,726 bands | 35,161 songs
Search: Register FREE! | Login
Browse Songs:
Browse Bands:
Tool Panel
Discuss This Song

1 2 3 4 5



Keith Urban - Making Memories Of Us (Lead)
Album: Be Here (2004)
Submitter: Derek_Cave99 (0) on 5/2/05 28 comments
Month Views: 14 | Total Views: 16,567
Moderator: urbanriffs | Report This Song?
Song Tools

Comment

Songbook

Kudos

Show Chords

Print

	E-mail:Derek_caven99 at hotmail.com                 
	This is a very sketchy version of some leads I like to use in this song.
 PLEASE GIVE ME SOME CORRECTIONS/ USE THIS TAB TO MAKE ANOTHER!!(Remember I'm 
only 13 so don't be so harsh…not like that 
matters)

Intro
E------------------------------------------------------
B------------------------------------------------------
G-----4-------------------4----------------------------
D--4h6-----4--2-----4h6-----4---2----1~--2-2h4-- 2-----
A------------------------------------------------------
E -----------------------------------------------------

E-------------------------------------------------------------
B-------------------------------------------------------------
G-------4----------------4------------------------------------
D-4h6------4--2------4h6---4--2---1~--2-2h4--2(ring)----------
A-------------------------------------------------------------
E-------------------------------------------------------------




0:16-0:19 (after intro)
E----------------------------
B-----2--0-------------------
G-------------2--------------
D----------------2-----------
A----------------------------
E----------------------------

         0:35   (after the walk-down)
E------------------------------------------------------------
B---0h2p0----------------------------------------------------
G------------2-----------------------------------------------
D---------------4---2---0h2 -- into the E chord--------------
A-------------------------------------------------------------
E ------------------------------------------------------------

      0:54-0:56 (verse into Chorus)
E------------------------------------------------
B------------------------------------------------
G-------------------2-- Into A chord-------------
D-----------2--4--------------------------------
A---2h4------------------------------------------
E -----------------------------------------------

 1:11-1:14 (Chorus into Verse)
E----------------------------
B---------------------------
G--1--2-2h4-----------------
D-----------4--2------------
A---------------------------
E --------------------------
     
      1:49-1:52 (Verse into Chorus)
E------------------------------------------------
B------------------------------------------------
G-------------------2------- Into A chord------
D-----------2--4--------------------------------
A---2h4-----------------------------------------
E -----------------------------------------------

 2:21-2:24 (in the mid. Of the bridge)
E--------------------------------
B-----3/5------------------------
G-----------7-5-----------------    I know this is close but any suggestions??
D----------------5--7-----------
A-------------------------------
E-------------------------------

       2:46-2:49 (after walk-down)    
E------------------------------------------------------------
B---0h2p0----------------------------------------------------
G------------2-----------------------------------------------
D---------------4---2---0h2 --- into the E chord-------------
A------------------------------------------------------------
E -----------------------------------------------------------

   2:55
E-------------------------------------------
B---5/7--9-9b--5--- into E chord-----------
G------------------------------------------
D------------------------------------------
A------------------------------------------
E -----------------------------------------

3:05-3:07
E------------------------------------------------
B------------------------------------------------
G-------------------2---- Into A chord-----------
D-----------2--4---------------------------------
A---2h4------------------------------------------
E -----------------------------------------------

    3:21-3:24
E----------------------------------------------
B----9b------7--------5------------------------
G---------9-------7----------------------------
D----------------------------7--5--7~----------
A----------------------------------------------
E ---------------------------------------------

  3:25-3:32
E-----5-------5---7---9b----------------------(4)--(2)-(0)(0)-
B---------9-----------------5------------------9----7---5--5--
G-------------------------------------------------------------( u can play the stuff in brackets instead,
D-------------------------------------------------------------  of the line above. I don't suggest u play 
A-------------------------------------------------------------  them at the same time tho)
E ------------------------------------------------------------

Outro: 3:36-4:11
E------------------------------------------------------------------------
B------------------------------------------------------------------------
G--------4-------------------4----------------------------------------4--
D--4h6-----4--2-----4h6-----4---2----1~--2-2h4-- 2------4h6------4--2----
A------------------------------------------------------------------------
E -----------------------------------------------------------------------

E----------------------------------------------------0---
B----------------------------------------------------0---
G----------------4-----------------------------------1---
D--4h6--------4--2---1~--2h4--6 ---------------------2---
A----------------------------------------------------2---
E----------------------------------------------------0---


 Comments (click here to add a non-facebook comment)
sorry about the spacing :(
-Derek_Cave99 | 5/2/2005
Way to go mate. Cheers!
-Johnny_Cash | 5/3/2005
thanx...this is my 2nd tab and it actually took a couple hours...i had to learn a lot of it at the same time tho :)
-Derek_Cave99 | 5/3/2005
i like it:D i like it alot... g/j

-dudeidontcare | 5/6/2005
thanx man

-Derek_Cave99 | 5/7/2005
dude, thats pretty good!!!
-Instigator | 5/8/2005
0:16-0:19
E---------------
B--2-0-----------
G------2----------
D--------2--------
A---------------
E----------------
-KU_isbestever | 5/8/2005
im confused where it says verse into chorus what are the chorus chords
-Chris1Signleton | 5/10/2005
what does it mean in the (parenthesiese)
-Chris1Signleton | 5/10/2005
The ( )s are just another way to play what is under them
-BlackFire411VM | 5/23/2005
awesome job dude.way to go!! thanks alot
-buckmaster122 | 5/26/2005
thanx for the positive comments :)

-Derek_Cave99 | 5/26/2005
kuisbester ur rite ill change that later...i noticed that was the way to play it one day when i was playin around

-Derek_Cave99 | 5/27/2005
finished
:)

-Derek_Cave99 | 5/27/2005
Excellent tab man...many props. Just wondering if anyone knew what he was doing when moves from a B chord to the G#m7 in the verses on AOL sessions. Sounds like some kind of hammer on action in the form of a B chord, but can't be for sure. Any suggestions??? Thanks again for the tab
-swagne79 | 5/31/2005
ill watch it again...but i mite not be able to find it:(
-Derek_Cave99 | 6/1/2005
Thanks man...let me know if you have any luck.
-swagne79 | 6/1/2005
it was ok

-Malon | 6/2/2005
ok? what is wrong with it?

-Derek_Cave99 | 6/2/2005
its alright...i mean i dont think anyone can make it sound exacty like how urban does it, but its sounsd good though anyway
-paramedic79ca | 6/2/2005
thanx..and i dont think ill ever achieve anything like keith
-Derek_Cave99 | 6/2/2005
awesome tab man....are u really only 13.,..gezzz...ur the man broo haha...well great job..
-paramedic79ca | 6/16/2005
thanks a lot haha....it looks hard but it was actually pretty easy for me...i should make more tabs haha
-Derek_Cave99 | 6/17/2005
theres a little riff starts at 2:07 min into the song...that i dont see up here. do any of u guys know how u play it???:)
-paramedic79ca | 6/17/2005
i will check into it later...

-Derek_Cave99 | 6/18/2005
thanks, awesome tabs! i haven't been able to find this tab to where it was actually close enough to use
-SoccrCML11 | 6/20/2005
can some one please rate this?
-Derek_Cave99 | 6/21/2005
anyone rate it?

-Derek_Cave99 | 8/31/2005
Home | FAQs | Privacy | Terms | Advertise | Contact
Top 100 Tab Sites