Give Kudos?
Are you sure you want to give kudos to EMRLDEYZS?

Add To Songbook?
Are you sure you want to add this song to your songbook?


2,831 bands | 36,016 songs
Search: Register FREE! | Login
Browse Songs:
Browse Bands:
Tool Panel
Discuss This Song

1 2 3 4 5



Keith Urban - Making Memories Of Us V.2 (Intro)
Album: Be Here (2004)
Submitter: EMRLDEYZS (26) on 9/12/05 7 comments
Month Views: 17 | Total Views: 5,632
Moderator: urbanriffs | Report This Song?
Song Tools

Comment

Songbook

Kudos

Show Chords

Print

I am working on doing a complete tab but this is just for starters


Gtr I  - Electric Clean
Gtr II - Acoustic


INTRO:


  Gtr I
|-----------------|-----------------|-------------------|-------------------|
|-----------------|-----------------|-------------------|-------------------|
|-----4-----------|-----4-----------|-------------------|-------------------|
|-4h6---4-(4)s2---|-4s6---4-(4)-2---|-1-(1)-2-2s4s------|-2-----------------|
|-----------------|-----------------|-------------------|-------------------|
|-----------------|-----------------|-------------------|-------------------|
|
| Gtr II
|-------0-(0)-----|-------0-(0)-----|-------------------|-------0-----------|
|-----------------|-----------------|---------4-4-------|---------0---------|
|-----1-------1---|-----1-------1---|-------4-----4-----|-----2-----2-------|
|---2-----------2-|---2-----------2-|----4----------4---|---2-------------2-|
|-----------------|-----------------|-------------------|-0-----------2h4---|
|-0---------------|-0---------------|-4---------------4-|-------------------|


   Gtr I
|-------------------|-------------------|-----------------|-------------------*|
|-------------------|-------------------|-----------------|-------------------*|
|-----4-------------|-----4-------------|-----------------|-------------------*|
|-4h6---4-(4)s2-----|-4s6---4-(4)-2-----|-1-(1)-2-2S4-----|-2-----------------*|
|-------------------|-------------------|-----------------|-------------------*|
|-------------------|-------------------|-----------------|-------------------*|
|
| Gtr II
|-------2-(2)---0---|-------2-(2)---0---|-----------------|-------------------*|
|-----------------0-|-----------------0-|-4-------------4-|-2-0---------------*|
|-----1-------1-----|-----1-------1-----|----4--------4---|-----2-(2)---------*|
|---2---------------|---2---------------|-------4---4-----|-----------2-----2-*|
|-------------------|-------------------|-----------------|-0-----------2h4---*|
|-0-----------------|-0-----------------|-4-------4-------|-------------------*|


 Comments (click here to add a non-facebook comment)
A full tab of this song would be great.
Is this from the CD or AOL sessions?
Thanks
-kenchristner | 9/12/2005
This is from the cd version
-EMRLDEYZS | 9/12/2005
wat si the picking pattern for this song??
-keithfan26 | 9/14/2005
Check out Acoustic Guitar Magazine.
It has this songs complete tab and lyrics.
It seems pretty good.
-kenchristner | 9/14/2005
its perfect....great so far...
-paramedic79ca | 9/18/2005
ok the full tab in powertab is now on here! complete with chord chart!
-atekjunkie | 9/22/2005
thank you
-ethanandrewkuna | 12/31/2005
Home | FAQs | Privacy | Terms | Advertise | Contact
Top 100 Tab Sites