Give Kudos?
Are you sure you want to give kudos to axehappy?

Add To Songbook?
Are you sure you want to add this song to your songbook?


2,722 bands | 35,151 songs
Search: Register FREE! | Login
Browse Songs:
Browse Bands:
Tool Panel
Discuss This Song

1 2 3 4 5



Keith Urban - Where The Blacktop Ends (Intro)
Album: Keith Urban (1999)
Submitter: axehappy (40) on 2/13/02 7 comments
Month Views: 20 | Total Views: 16,330
Moderator: urbanriffs | Report This Song?
Song Tools

Comment

Songbook

Kudos

Show Chords

Print

Keith Urban - Where The Blacktop Ends (lead intro)

By axehappy - axehappy at countrytabs.com

This repeats in one form or another at points throughout the song.

***********************************************************************

x   =   dead note                                \   =   slide down

h   =   hammer on                                b   =   bend

br  =   bend & release                           /   =   slide up

p   =   pulloff

***********************************************************************


INTRO

E-----------------------------------------------------------------
B-------------------------7-7b-7br--------------------------------
G------------7h9-9-9-7h9-9--------9-7-6-7-7/9-7h9p7p6-------------
D--x-x-x---------------------------------------------7-5-5-5/7-7--
A--x-x-x------------------------------------------------7-7-------
E--x-x-x-12\------------------------------------------------------


E---------------------------------------------------------------|
B---------------7-7b-7br----------------------------------------|
G--7h9-9-9-7h9-9--------9-7-6-7-7/9-7h9p7p6--------0------------|
D------------------------------------------7-5/7----4-2-0-------|
A--------------------------------------------------------3b-0---|
E---------------------------------------------------------------|
 Comments (click here to add a non-facebook comment)
after the slide from 12th, first progression is more like this, sorry Axe

E-------------------------------------------------------------
B----------------7-7b-7br-------------------------------------
G---7h9-9-9-7h9-9--------9-7-6-7-7/9-7h9p7p6--------------4b-0
D-------------------------------------------7-5-7-5-4---------
A-----------------------------------------------------3b0-----
E-------------------------------------------------------------

-Cspirits | 6/22/2002
I'm sorry to say guys. But your Both wrong
Please don't take that in a bad way. I'm not
trying to put anyone down but try my tab for
it, my tab is right.
-the legend | 7/31/2002
.
-the legend | 7/31/2002
Its close but it not like keith play it
-KU_isbestever | 8/31/2004
Sounds right to me, and the notes can be the same just in a different postition, it doesn't make a tab wrong.

You watch brad in the "little moments" vid and he plays one part higher on the neck than how axe tabbed it, but its still exactly the same thing, just different postition.
-mooman2679 | 2/6/2005
The only thing is that Keith slides on both the B AND E string 3/5 so the tab is kinda off jus a lil since it would only have the 3/5 slide on the B string with the 7h9 on the G string.
-KU_isbestever | 2/13/2005
not trying to sound mean at all, but this is not right at all...try again
-kgcowboy | 6/11/2005
Home | FAQs | Privacy | Terms | Advertise | Contact
Top 100 Tab Sites