Give Kudos?
Are you sure you want to give kudos to dbeaverboner?

Add To Songbook?
Are you sure you want to add this song to your songbook?


2,726 bands | 35,161 songs
Search: Register FREE! | Login
Browse Songs:
Browse Bands:
Tool Panel
Discuss This Song

1 2 3 4 5



Keith Urban - Who Wouldn’t Wanna Be Me (verses, Choruses, Outro) (Lead)
Album: Golden Road (2002)
Submitter: dbeaverboner (3) on 3/20/04 7 comments
Month Views: 6 | Total Views: 10,722
Moderator: urbanriffs | Report This Song?
Song Tools

Comment

Songbook

Kudos

Show Chords

Print

Who Wouldn’t Wanna Be Me

The palm-muted part in the 2nd verse sounds sort of like this
E---------------------------------------------
B--7--7-7-7--5--5-5-7--8--8-8-8--7--7-7-7-5---
G--7--7-7-7--7--7-7-7--7--7-7-7--7—-7-7-7-7-7-
D---------------------------------------------
A---------------------------------------------
D---------------------------------------------

E---------------------------------------------
B--7--7-7-7--5--5-7-7--3--3-3-3--3--3-3-3-3-0-
G--7--7-7-7--7--7-7-7--5--5-5-5--4—-4-4-4-4-2-
D---------------------------------------------
A---------------------------------------------
D---------------------------------------------

E---------------------------------------------
B--7--7-7-7--5--5-5-7--8--8-8-8--7--7-7-7-5---
G--7--7-7-7--7--7-7-7--7--7-7-7--7—-7-7-7-7-7-
D---------------------------------------------
A---------------------------------------------
D----------------------------------------------

E---------------------------------------------
B--7--7-7-7--5--5-5-5--5--5--5--5--5----------
G--7--7-7-7--7--7-7-7--7--7--7--7--7--7-------
D-------------------------------------7-------
A---------------------------------------------
D---------------------------------------------

End of 1st chorus (1:35)
E----------------------------------------------------------
B----------------------------------------------------------
G-11p9p7-9(11)~~---(11)(11)-(11)(11)-(11)(11)-(11)(11)9p7--
D---------bh---------slow release . . . . . . . . . .------
A----------------------------------------------------------
D-------(echoed)-------------------------------------------

3rd verse riffs
E-(1:45)----------------------------------(1:49)-----------
B----------------------------------------------------------
G----------------------------------------------------------
D-----------------------------------------------0----------
A-x-x--b-r---b-r---b-r---b-r----------------3-4--------0---
D-0-0-2(3)2-2(3)2-2(3)2-2(3)2-3p2-0----------------5-6-----

E-(1:53)---------------------------------------------------
B-12p10h12-----------b--r----------------------------------
G---------11p9h11-9-9(11)9-7-------------------------------
D----------------------------------------------------------
A----------------------------------------------------------
D----------------------------------------------------------

2nd chorus fill
E-----5----------------------------------------------------
B--/7---5-3------------------------------------------------
G-----------4-2-0------------------------------------------
D-----------------2-2-3p2p0-0------------------------------
A----------------------------------------------------------
D-(2:07)---------------------------------------------------

3rd chorus fills
E------5---------------------10---------------(2:54)------------------------------
B-5(7)---(7)5----------10(12)—-(12)10(12)-----------------------------------------
G--bh------r--4----------bh-------r---bh---------------------11p9p7-9(11)~~-------
D--------------------------------------------------------------------bh-----------
A----------------------------------------------3-2-0----------------slow----------
D-(2:42)--------------(2:45)-------------------------3-0------(3:10)----------/12-

E------------------------------(3:33)---------------------------------------------
B--8—-7--5--3--5---5-7-3--------------3-------------------------------------------
G------------------------------2(4)----(4)2(4)2---------2-------------------------
D-------------------------------bh-------r-b-r-----2(4)---4(2)-2—-2p0-0-----------
A------------------------------slow-----------------b------r----------------------
D—(3:25)--------------------------------------------------------------------------

E-(3:41)-----------------------(3:45)---------------------------------------------
B---------------------------------------------------------------------------------
G-----------------------------------------------------------------------2--b-r----
D---------------------------------??-----------------------0----2-0—2/4---2(3)2-0-
A--b----b----b----b--------------------------b----b-------------------------------
D-2(3)-2(3)-2(3)-2(3)-3p2p0-----0/12\0--0-0-2(3)-2(3)-0------3/-------------------

FADES OUT
 Comments (click here to add a non-facebook comment)
killer tab man
-Chesneyman_14 | 6/15/2004
Man this is good.
-mike26 | 12/9/2004
Actually that intro would be in the E pentatonic scale.

E pent = e g a b d e g a b d e g (from your diagram)

Notes in intro =
g dHe gag aPg aSb d bSa gHaPg

notes are lower case H S P are hammer, slide, pulloff (from above tab).

So all the notes in the intro are in the E pent. scale.
-DaveWH | 12/8/2004
You r a godsend thank you my favourite song

-Derek_Cave99 | 1/31/2005
If you get that part were you have a question mark on the end then ill give you a perfect 10.
-KU_isbestever | 2/17/2005
how the hell did u figure this stuff out ..do guys do all this by ear....??

-paramedic79ca | 4/16/2005
oh ya good tab bro
-paramedic79ca | 4/16/2005
Home | FAQs | Privacy | Terms | Advertise | Contact
Top 100 Tab Sites