Give Kudos?
Are you sure you want to give kudos to rachyl?

Add To Songbook?
Are you sure you want to add this song to your songbook?


2,728 bands | 35,171 songs
Search: Register FREE! | Login
Browse Songs:
Browse Bands:
Tool Panel
Discuss This Song

1 2 3 4 5



Keith Urban - You're Not Alone Tonight ( Correct Live Intro) (Intro)
Album: Golden Road (2002)
Submitter: rachyl (0) on 6/2/08
Month Views: 14 | Total Views: 2,164
Moderator: urbanriffs | Report This Song?
Song Tools

Comment

Songbook

Kudos

Show Chords

Print

                  

This is my first tab, any input would be greatly appreciated!! 

Capo on the 1st fret/ standard tuning

e|------------|---0-------|------------|---0------0h2-|
B|------------|---3-------|------------|---3------3---|
G|------------|---0--(x3)-|------------|---2(x3)-2---|
D|-----0---0h2|-2-2-------|-2h4-2-0----|-0-0------0---|
A|-0h2---0----|-0-0-------|---------2-0|-0-0------0---|
E|------------|-----------|------------|--------------|

e|------------|---0--------|---------------|---0-------0h2-|
B|------------|---3--------|---------------|---3-------3---|
G|------------|---0-(x3)--|-----2---------|---2(x3)--2---|
D|-----0-2h4-2|-2-2--------|-2h4---0h2p0-0-|-0-0-------0---|
A|-0h2--------|-0-0--------|---------------|-0-0-------0---|
E|------------|------------|---------------|---------------|


For the chords look at palamin0's live chord tab he did a great job!
 Comments (click here to add a non-facebook comment)
Home | FAQs | Privacy | Terms | Advertise | Contact
Top 100 Tab Sites