Give Kudos?
Are you sure you want to give kudos to axehappy?

Add To Songbook?
Are you sure you want to add this song to your songbook?


2,722 bands | 35,144 songs
Search: Register FREE! | Login
Browse Songs:
Browse Bands:
Tool Panel
Discuss This Song

1 2 3 4 5



Kenny Chesney - Big Star (Solo)
Album: No Shoes, No Shirt, No Problem (2002)
Submitter: axehappy (15) on 8/11/03
Month Views: 3 | Total Views: 7,694
Moderator: Ray Terry | Report This Song?
Song Tools

Comment

Songbook

Kudos

Show Chords

Print

Kenny Chesney  -  Big Star  (solo)

By axehappy  -  axehappy at countrytabs.com


***********************************************************************************

b   =   bend                                          h   =   hammer-on

br  =   bend & release                                p   =   pulloff

\   =   slide down                                    /   =   slide up

bh  =   bend & hold                                   r   =   release bend

ph  =   pinched harmonic                              ~   =   hold note

***********************************************************************************



E------8----8----8----8----8--8-8-8----8------------5--------------------------
B-----8----8----8----8----8--10-8-8h10-8-----------5-8br-6-5-5b-5br------------
G--10b--10b--10b--10b--10b--------------7br-p5---7b----------------7-5-4br-----
D---------------------------------------------7-5-------------------------5----
A--------------------------------------------------------------------------5\--
E------------------------------------------------------------------------------


E-------------------8----------------------------|
B-------------------8-8--------------------------|
G--------------5-7bh---7r-p5-7ph-7br-p5-7--------|
D---------5-5/7--------------------------7~~~\---|
A----3-5/7---------------------------------------|
E--/5--------------------------------------------|

 Comments (click here to add a non-facebook comment)
Home | FAQs | Privacy | Terms | Advertise | Contact
Top 100 Tab Sites