Give Kudos?
Are you sure you want to give kudos to yinielin?

Add To Songbook?
Are you sure you want to add this song to your songbook?


2,732 bands | 35,202 songs
Search: Register FREE! | Login
Browse Songs:
Browse Bands:
Tool Panel
Discuss This Song

1 2 3 4 5



Kenny Chesney - Just Don't Happen Twice (Lead)
Album: Greatest Hits (2000)
Submitter: yinielin (0) on 6/16/03 2 comments
Month Views: 2 | Total Views: 7,595
Moderator: Ray Terry | Report This Song?
Song Tools

Comment

Songbook

Kudos

Show Chords

Print

By:Yinielin
Kenny Chesney, Just Don't Happen Twice

                
               First lick in verse
E---------------------------------------------
B---------------------------------------------
G--2-2bh-0-0----------------------------------
D---------------------------------------------
A---------------------------------------------
E---------------------------------------------
               Second lick in verse
E---------------------------------------------
B-3-3-1p0-1h3-1p0-1h3-1h3---------------------
G-0-0-0---0---0---0---0-----------------------
D---------------------------------------------
A---------------------------------------------
E---------------------------------------------
               Third lick in verse
E---------------------------------------------
B---------------------------------------------
G------2-2bh-0-0------------------------------
D-0h2-----------------------------------------
A---------------------------------------------
E---------------------------------------------
 Comments (click here to add a non-facebook comment)
Does yinielin ever post a mistake?
Good job again.

-eric_steinmetz | 6/21/2003
yes he does he sucks big ass
-adamsexton771 | 12/15/2004
Home | FAQs | Privacy | Terms | Advertise | Contact
Top 100 Tab Sites