Give Kudos?
Are you sure you want to give kudos to matellmon?

Add To Songbook?
Are you sure you want to add this song to your songbook?


2,722 bands | 35,151 songs
Search: Register FREE! | Login
Browse Songs:
Browse Bands:
Tool Panel
Discuss This Song

1 2 3 4 5



Kenny Chesney - Me And You (Intro)
Album: Me and You (1996)
Submitter: matellmon (24) on 3/21/02
Month Views: 4 | Total Views: 7,856
Moderator: Ray Terry | Report This Song?
Song Tools

Comment

Songbook

Kudos

Show Chords

Print

|------------------10----------|---------------------|----------------------
|-^(10)-r10p8-10---------8~~~--|---------------12----|----------------------
|------------------------------|----11^-r(11)-------9|-7/9-7--------7h9p7-7-
|------------------------------|---------------------|--------7/9-----------
|------------------------------|---------------------|----------------------
|------------------------------|---------------------|----------------------

|-----------------10/12--------|---------------------|----------------------
|-^(10)r-10-p8-10--------8~~~--|-8-9--12--10-10-8-8--|----------------------
|------------------------------|---------------------|-7/9-7----------------
|------------------------------|---------------------|-------9-7-----7------
|------------------------------|---------------------|-----------9-7--------
|------------------------------|---------------------|----------------------
 Comments (click here to add a non-facebook comment)
Home | FAQs | Privacy | Terms | Advertise | Contact
Top 100 Tab Sites