Give Kudos?
Are you sure you want to give kudos to WildCard76?

Add To Songbook?
Are you sure you want to add this song to your songbook?


2,636 bands | 34,517 songs
Search: Register FREE! | Login
Browse Songs:
Browse Bands:
Tool Panel
Discuss This Song

1 2 3 4 5





Kenny Chesney - Paris, Tn (Intro)
Album: All I Need to Know (2004)
Submitter: WildCard76 (284) on 10/15/02
Month Views: 27 | Total Views: 3,186
Moderator: Ray Terry | Report This Song?
Song Tools

Comment

Songbook

Kudos

Show Chords

Print

E-----1--2--3--4-----3------2------1-------------------------
B-----0--1--2--3-----2------1------0-------------------------
G-----1--2--3--4-----3------2------1-------------------------
D------------------------------------------------------------
A------------------------------------------------------------
E------------------------------------------------------------

E-----1--2--3--4-----3------2------1-------------------------
B-----0--1--2--3-----2------1------0-------------------------
G-----1--2--3--4-----3------2------1-------------------------
D------------------------------------------------------------
A------------------------------------------------------------
E------------------------------------------------------------

E---------------------------------------2---0-----0----------
B---------------------------------------4---2-----0----------
G---------------------------------------4---2-----1----------
D---------------------------------------4---2-----2----------
A--2-4-5-4---2-4-5-4---2-4-5-4---2-4----2---0-----2----------
E--0-0-0-0---0-0-0-0---0-0-0-0---0-0--------------0----------
 Comments (click here to add a non-facebook comment)
Home | FAQs | Privacy | Terms | Advertise | Contact
Top 100 Tab Sites