Give Kudos?
Are you sure you want to give kudos to yinielin?

Add To Songbook?
Are you sure you want to add this song to your songbook?


2,733 bands | 35,224 songs
Search: Register FREE! | Login
Browse Songs:
Browse Bands:
Tool Panel
Discuss This Song

1 2 3 4 5



Kenny Chesney - Young(revised) (Solo)
Album: No Shoes, No Shirt, No Problem (2002)
Submitter: yinielin (1) on 6/15/03 1 comment
Month Views: 3 | Total Views: 5,227
Moderator: Ray Terry | Report This Song?
Song Tools

Comment

Songbook

Kudos

Show Chords

Print

By:Yinielin
Kenny Chesney, Young


H=Hold the note



E-4/5-5-5-5-5-5--5-7b--5-5---5------------
B--------------------------7----7-7-5-5/2-
G-----------------------------------------
D-----------------------------------------
A-----------------------------------------
E-----------------------------------------
             
E----------------------------------------------------
B-0h2p0---------------------------------5-5-5h7------
G-------2-------------------------2-4/6--------------
D---------4-2h4---------------2/4--------------------
A---------0-0----0-3b-3b-0--0------------------------
E----------------------------------------------------

E-----------------------------------9----12p9--------
B--7-7-7/10-10-10-10/12-12-12-12/14---10------12p10--
G----------------------------------------------------
D----------------------------------------------------
A----------------------------------------------------
E----------------------------------------------------

E--12p9-12p9-------12p9-12p9-------12p9-------12p9-
B------------12p10-----------12p10------12p10------
G--------------------------------------------------
D--------------------------------------------------
A--------------------------------------------------
E--------------------------------------------------

E-----------------------------------------------
B--12-10-9H--------------------------------------
G-----------------------------------------------
D-----------------------------------------------
A-----------------------------------------------
E-----------------------------------------------
 Comments (click here to add a non-facebook comment)
good job!! pretty easy tab
-supercrew | 4/13/2004
Home | FAQs | Privacy | Terms | Advertise | Contact
Top 100 Tab Sites