Give Kudos?
Are you sure you want to give kudos to twangintele?

Add To Songbook?
Are you sure you want to add this song to your songbook?


2,647 bands | 34,594 songs
Search: Register FREE! | Login
Browse Songs:
Browse Bands:
Tool Panel
Discuss This Song

1 2 3 4 5





Little Texas - Amy's Back In Austin [intro & Lead Solo] (Tab)
Album: Kick a Little (1994)
Submitter: twangintele (0) on 8/28/02
Month Views: 86 | Total Views: 7,128
Moderator: mo_freestyle | Report This Song?
Song Tools

Comment

Songbook

Kudos

Show Chords

Print

Amy's Back in Austin (Little Texas)

Intro & Lead Guitar Solo


INTRO: (Acoustic)

                     Gsus2
   
E---3---3-------3-----3--|---------3-----3---3------|
B---3---3-------0-----3--|---------3-----3---3---3--|
G---0---0-------0--3--2--|---------2-----2---2---0--|
D---2---2---0---2--0-----|---------0-----0---0---0--|
A------------------------|--------------------------|
E---3---3---3------------|---3-----------3----------|


  Cadd9               Gsus2                        G5

E--3---3---------------3----|---3------------------3-|
B--3---3---------3--3--3----|---3----------3---3---3-|
G--0---0------0--0--0--2----|---2--0h2--0--0---0---0-|
D--2---2---2--0--2----------|--(0)---------2---0---0-|
A--3---3--------------------|---3--------------------|
E---------------------------|----------------------3-|



LEAD GUITAR SOLO: (Electric w/distortion)

*******************************************************
b = bend,    p = pulloff,       \ = slide down,

/ = slide up, bh = bend and hold, br = bend and release

~ = let ring,   r = release,     
 
h = hammer on      
*******************************************************


(D)                                             (G5) 
                 
E-----------------------------------------|---------------
B-----------------------------------------|---------------
G--12---11h12p11------------------12------|-----14br------
D-----------------12-------10/12-------12-|---------------
A---------------------14------------------|---------------
E-----------------------------------------|---------------

                                              ~~~~
E------------------------|--------------------------------
B---------15-------------|-13-----------------------------
G-14bh--------------14---|-----16--(14)rp12--12--14-------
D------------------------|---------------------------14\12
A------------------------|--------------------------------
E------------------------|--------------------------------
       

       (Cadd9)                                        
        ~~~~~~~                               
E-----|--------------------------|------------------------
B-----|---------------------15---|------------(15)--------
G-----|----------12--------------|------------------------
D--10/|14------------------------|------------------------
A-----|--------------------------|------------------------
E-----|--------------------------|------------------------


     (G5)            
                ~~~~~~~
E------------------------------------|--------------------
B------------------------------------|--------------------
G----14\12-----12--------------------|-------------12-----
D----14\12-----12--------14----------|--------------------
A---------------------------\12p10---|---10/12h14---------
E------------------------------------|--------------------

                   (D)      
                     ~~~~~~~
E-------------15--17bh----|--(17)-------------------------
B---------15--------------|-------------17br--17p15--17---
G--14/16------------------|-------------------------------
D-------------------------|-------------------------------
A-------------------------|-------------------------------
E-------------------------|-------------------------------

                                    (G5)
   ~~~               ...was it the angry words 
E------|--------------------------------------------------
B-15---|--------------------------------------------------
G------|--------------------------------------------------
D------|--------------------------------------------------
A------|--------------------------------------------------
E------|--------------------------------------------------



 Comments (click here to add a non-facebook comment)
Home | FAQs | Privacy | Terms | Advertise | Contact
Top 100 Tab Sites