Give Kudos?
Are you sure you want to give kudos to saleen9899?

Add To Songbook?
Are you sure you want to add this song to your songbook?


2,732 bands | 35,199 songs
Search: Register FREE! | Login
Browse Songs:
Browse Bands:
Tool Panel
Discuss This Song

1 2 3 4 5



Little Texas - What Might Have Been (updated) (Tab)
Album: Big Time (1993)
Submitter: saleen9899 (1) on 10/17/05 1 comment
Month Views: 11 | Total Views: 8,094
Moderator: mo_freestyle | Report This Song?
Song Tools

Comment

Songbook

Kudos

Show Chords

Print

INTRO
---------------------------------------------
3--3--3--3-----3-1-1--1-3-1-1-0--0-------1---
--0--0--0--0--0---0--0-----0----0----0--0--0-
-0--0--0--0--2------1----------0--0h2--0--2--
------------3----------------------------3---
3-----3-----------------------3-------3------

VERSE
---------------------------------------------------
0--0--0--0--3--3--3--3--1--1--1--1--0--0-------1---
--0--0--0--0--2--2--2--2--0--0--0--1--0----0--0--0-
-0--0--0--0--4--4--4--4--2--2--2--2--0--0h2--0--2--
-----------------------------------------------3---
3-----3-----3-----3-----3-----3-----3-------3------

---------------------------------------2----------
0--0--0--0--3--3--3--3--1--1--1--1--3-3-3---1--3--
--0--0--0--0--2--2--2--2--0--0--0--1-2---2-2--0---
-0--0--0--0--4--4--4--4--2--2--2--2-0-------------
------------------------------------------0--2----
3-----3-----3-----3-----3-----3-------------------

CHORUS
-----------------------------------------2---------
1--1--1--1--3--3--3-3--3---3----1--1--3-3-3---1--3-
--0--0--0--0--0--0-0--0---0-------0--0-2---2-2--0--
-2--2--2--2--0--0--------0-------2--2-0------------
3-----3---------------------0-2-3-----------0--2---
------------3-----3--2--0--------------------------

------------------------------------2----3-
1--1--1--1-----3--3--3--3----1--3--3-------
--0--0--0--0-----0--0--0--0-2--0--2--------
-2--2--2--2-----0--0--0--0-------0---------
3-----3------3-2-----2-----0--2------0-2-3-
------------3------------------------------

BRIDGE

G Dsus2 Em   			    Bm
         That same old look in your eyes
                          C
         it's a beautiful night
                           D    Dsus4 D
         I'm so tempted to stay
G Dsus2 Em			    Bm
         But too much time has gone by
		                 C
         We should just say good-bye

         and turn and walk away

                  D Am7 Bm7
-3--3----3--3----
--3--3-3--3--3-3-
---2--2----2--2--
0-------0--------
-----------------
-----------------

OUTRO

---------------------2-3-
3--3--3--3----1--3--3----
--0--0--0--0-2--0--2-----
-0--0--0--0-------0------
------------0--2-------3-
3-----3------------------

--------------------------------3-
3--3--3--3-----3-1-1--1-3-1-1---0-
--0--0--0--0--0---0--0-----0-0--0-
-0--0--0--0--2------1---------0-0-
------------3-------------------2-
3-----3-------------------------3-
 Comments (click here to add a non-facebook comment)
Are you serious...You know what, this doesn't even deserve a response. Learn to play then talk to me...
-jdomary | 9/5/2005
Home | FAQs | Privacy | Terms | Advertise | Contact
Top 100 Tab Sites