Give Kudos?
Are you sure you want to give kudos to WildCard76?

Add To Songbook?
Are you sure you want to add this song to your songbook?


2,632 bands | 34,462 songs
Search: Register FREE! | Login
Browse Songs:
Browse Bands:
Tool Panel
Discuss This Song

1 2 3 4 5





Little Texas - You, And Forever And Me (Intro)
Album: First Time for Everything (1992)
Submitter: WildCard76 (276) on 12/10/02
Month Views: 16 | Total Views: 2,738
Moderator: mo_freestyle | Report This Song?
Song Tools

Comment

Songbook

Kudos

Show Chords

Print

YOU AND FOREVER AND ME
Little Texas

Intro
-----3------------------------0--------------------------3------------------
----3------------------------1--------------------------3----------8---10---
---0------------------------0--------------------------0-------7/9--9-------
--0-----------5---7/9------2----------5---5-----------0---------------------
-2--------5h7---7---------3-------5h7---7---7/9------2----------------------
3---------------------------------------------------3-----------------------


----------------------------------------------------------------------------
--10-8h10p8-----------------------------------------------------------------
---------------9-7/9--(9)/11-12---------------------------------------------
----------------------------------------------------------------------------
----------------------------------------------------------------------------
----------------------------------------------------------------------------
 Comments (click here to add a non-facebook comment)
Home | FAQs | Privacy | Terms | Advertise | Contact
Top 100 Tab Sites