Give Kudos?
Are you sure you want to give kudos to yinielin?

Add To Songbook?
Are you sure you want to add this song to your songbook?


2,729 bands | 35,173 songs
Search: Register FREE! | Login
Browse Songs:
Browse Bands:
Tool Panel
Discuss This Song

1 2 3 4 5



LoneStar - My Front Porch Looking In (Intro)
Album: From There to Here, Greatest Hits (2003)
Submitter: yinielin (0) on 7/6/03
Month Views: 4 | Total Views: 6,237
Moderator: mo_freestyle | Report This Song?
Song Tools

Comment

Songbook

Kudos

Show Chords

Print

By:Yinielin
Lonestar, My Front Porch Looking In


If you have a capo on third fret play
all the 8's on A string as open on D string. 

Play the fiddle intro twice then come in with
guitar for two more times of playing it. 

Fiddle Intro on Guitar
E-----------------------------------
B-----------------------------------
G-----------------------------------
D-5h7-5---5h7-5--7h5-7--------------
A-------8--------------8------------
E-------------------------6-6-6/8---

Guitar Intro                                
E-----------------------------------
B-----------------------------------
G-----------------------------------
D-5h7-5---5h7-5--5h7-5--------------
A-------8--------------8------------
E-------------------------6-6-6/8---

A Lick done throughout the verses. 
E-----------------------------------
B-----------------------------------
G-----------------------------------
D-----------------------------------
A-----------------------------------
E--6/8------------------------------
 Comments (click here to add a non-facebook comment)
Home | FAQs | Privacy | Terms | Advertise | Contact
Top 100 Tab Sites