Give Kudos?
Are you sure you want to give kudos to jmjansen2s?

Add To Songbook?
Are you sure you want to add this song to your songbook?


2,635 bands | 34,497 songs
Search: Register FREE! | Login
Browse Songs:
Browse Bands:
Tool Panel
Discuss This Song

1 2 3 4 5





Luke Bryan - Country Girl (shake It For Me)(Correct) (Intro)
Album: Tailgates & Tanlines (2011)
Submitter: jmjansen2s (1) on 5/19/11 2 comments
Month Views: 59 | Total Views: 15,166
Moderator: Ray Terry | Report This Song?
Song Tools

Comment

Songbook

Kudos

Show Chords

Print

e---------------------------------------------------------------------------
b---------------------------------------------------------------------------
g---------------------------------------------------------------------------
d-----0h2---4--2--0h2-----0h2 2--4--2---0h2-----0h2-2--4-2-0h2--------------
a---------------------------------------------------------------0h2br------
E---0--------------------0---------------------0--------------------0------

Repeat once

br=bend and release
h=hammer on
 Comments (click here to add a non-facebook comment)
Rate Please!!!!!!
-jmjansen2s | 5/20/2011
e---------------------------------------------------------------------------
b---------------------------------------------------------------------------
g---------------------------------------------------------------------------
d-----0h2---4--2--0h2-----0h2 --4--2---0h2-----0h2---4-2-0h2--2------------
a------------------------------------------------------------------------------
E---0--------------------3------------------------2--------------------3---0---

Correction if you would like to use it^
-Ageofrager | 12/4/2014
Home | FAQs | Privacy | Terms | Advertise | Contact
Top 100 Tab Sites