Give Kudos?
Are you sure you want to give kudos to guitarviper?

Add To Songbook?
Are you sure you want to add this song to your songbook?


2,732 bands | 35,202 songs
Search: Register FREE! | Login
Browse Songs:
Browse Bands:
Tool Panel
Discuss This Song

1 2 3 4 5



Marty Stuart - Now That's Country (Intro)
Album: This One's Gonna Hurt You (1992)
Submitter: guitarviper (1) on 8/19/02 2 comments
Month Views: 1 | Total Views: 5,507
Moderator: blugraspickr | Report This Song?
Song Tools

Comment

Songbook

Kudos

Show Chords

Print

Now Thats Country
Marty Stuart
Intro
Guitarviper
-----------------------------------------------------------------------------------
-------------------3-4/8-8-8-8-8-8-------------------------------------------------
-0-5--3---0----3h5---3/7-7-7-7-7-7--5br-5br-5br-5brp3-----5-3-0--------------------
-0-5--3---0--5----------------------------------------5-3-5-3-0-3-3h5trill/(10)----
----------------------------------------------------------------3------------------
-----------------------------------------------------------------------------------

-----------------------------------------------------------------------------------
----------15/17-17-17-17-17-------17-19-19p17-17p15--------------------------------
----12-15-15/17-17-17-17-17-------17-19-19p17-17p15--------------------------------
-14-------------------------17h20-------------------10br-8------------8------------
-----------------------------------------------------------10-8-10-10---10-8-------
-----------------------------------------------------------------------------10-8-6

------------------------7-10-7---------5-8-5---------3-6-3---------1-4-1-----------
----------------------9--------9-----7-------7-----5-------5-----3-------3---------
-----------------8/10------------6/8-----------4/6-----------2/4-----------1-------
--------8--------------------------------------------------------------------1/3---
------8---10-----------------------------------------------------------------------
-8-10------------------------------------------------------------------------------

--------------------------------
-3-3-------------3--------------
-3-3-1-----------3--------------
-------3-1----------------------
-----------3-1------------------
---------------3----------------
 Comments (click here to add a non-facebook comment)
They need to make some tabs to this song
-Party | 7/13/2005
They need to make some tabs to this song
-Party | 7/13/2005
Home | FAQs | Privacy | Terms | Advertise | Contact
Top 100 Tab Sites