Give Kudos?
Are you sure you want to give kudos to Rondo Fondu?

Add To Songbook?
Are you sure you want to add this song to your songbook?


2,725 bands | 35,155 songs
Search: Register FREE! | Login
Browse Songs:
Browse Bands:
Tool Panel
Discuss This Song

1 2 3 4 5



Mary Chapin Carpenter - He Thinks He'll Keep Her (Tab)
Album: Come On Come On (1992)
Submitter: Rondo Fondu (12) on 3/3/04
Month Views: 14 | Total Views: 5,702
Moderator: Ray Terry | Report This Song?
Song Tools

Comment

Songbook

Kudos

Show Chords

Print

He Thinks He'll Keep Her                      

By Mary-Chapin Carpenter and Don Schlitz




Gtr I   (E A D G B E) - 'Gtr. 1'
Gtr II  (E A D G B E) - 'Gtr. 2 (Elec. 12-string)'
Gtr III (E A D G B E) - 'Gtr. 3 (Acous.)'
Gtr IV  (E A D G B E) - 'Gtr. 4'
Gtr V   (E A D G B E) - 'Gtr. 5'

 Intro
  Moderately Fast Q=144

  A                               F#m               D
 4/4
  Gtr III
  Q   E E Q  Q    E E E E Q  Q     Q    E E Q  Q    Q  E E E E Q
  |   | | |       | | | | |  |     |    | | |  |    |  | | | | |
  /   / / /       / / / / /  /     /    / / /  /    /  / / / / /

  Gtr I
  Q   Q   Q  Q    Q.    E H       +Q    Q   Q  Q    W
|-----0---0-----|-0-------0-----|-(0)---0---0-----|-5-------------|
|----/5---3--2--|-0h====2-2-----|-(2)--/5---3--2--|---------------|
|---------------|---------------|-----------------|-2-------------|
|---------------|---------------|-----------------|---------------|
|---------------|---------------|-----------------|---------------|
|---------------|---------------|-----------------|---------------|
|
| Gtr II
| Q   Q   Q  Q    E E Q   H       +Q    Q   Q  Q    W
|-----5------5--|-----5---------|-----------5-----|---------------|
|---------5-----|-5-5-----5-----|-(5)---5------5--|-5-------------|
|---------------|---------------|-----------------|---------------|
|---------------|---------------|-----------------|---------------|
|---------------|---------------|-----------------|---------------|
|---------------|---------------|-----------------|---------------|


  A                                 F#m               D           E
  Q   E E Q  Q     E  E E E Q  Q     Q    E E Q  Q     Q   Q  E E Q
  |   | | |        |  | | | |  |     |    | | |  |     |   |  | | |
  /   / / /        /  / / / /  /     /    / / /  /     /   /  / / /

  Q   Q   Q  Q     Q.     E H       +Q    Q   Q  Q     W
|-----0---0-----|--0--------0-----|-(0)---0---0-----|--5--------------||
|----/5---3--2--|--0h=====2-2-----|-(2)--/5---3--2--|-----------------||
|---------------|-----------------|-----------------|--2--------------||
|---------------|-----------------|-----------------|-----------------||
|---------------|-----------------|-----------------|-----------------||
|---------------|-----------------|-----------------|-----------------||
|
| Gtr IV
| Q   Q   Q  Q     Q.     E H       +Q    Q   Q  Q     W
|---------------|-----------------|-----------------|-----------------||
|---------------|-----------------|-----------------|-----------------||
|---------------|-----------------|-----------------|-----------------||
|-----2---0-----|-----------------|------/2---0-----|-----------------||
|------------4--|--2------4-4-----|-(4)----------4--|--0--------------||
|---------------|-----------------|-----------------|-----------------||
|
| Gtr II
| Q   Q   Q  Q    +E  E Q   H       +Q    Q   Q  Q    +W
|-----5---------|-------5---------|-----------------|-----------------||
|---------5--5--|-(5)-5-----5-----|-(5)---5---5--5--|-(5)-------------||
|---------------|-----------------|-----------------|-----------------||
|---------------|-----------------|-----------------|-----------------||
|---------------|-----------------|-----------------|-----------------||
|---------------|-----------------|-----------------|-----------------||


 1st Verse
  A                            F#m             D
  Q  Q  Q  Q    Q  Q  E E Q    E E E E Q  Q    Q  Q  E E E E
  |  |  |       |  |  | | |    | | | | |       |  |  | | | |
  /  /  /       /  /  / / /    / / / / /       /  /  / / / /

  W             W              W               W
|-------------|--------------|---------------|----------------|
|-------------|--------------|---------------|----------------|
|-------------|--------------|---------------|----------------|
|-------------|--------------|---------------|----------------|
|-------------|--------------|---------------|----------------|
|-------------|--------------|---------------|----------------|


  A                             F#m             D
  E E Q  Q  Q    Q  Q  E E Q    E E E E Q  Q    Q  Q  E E Q
  | | |  |       |  |  | | |    | | | | |  |    |  |  | | |
  / / /  /       /  /  / / /    / / / / /  /    /  /  / / /

  W              W              W               W
|--------------|--------------|---------------|---------------|
|--------------|--------------|---------------|---------------|
|--------------|--------------|---------------|---------------|
|--------------|--------------|---------------|---------------|
|--------------|--------------|---------------|---------------|
|--------------|--------------|---------------|---------------|


  E                                 Bm
  Q  E E Q  Q    Q  Q   Q     Q     E  E Q  Q  Q    E E Q   E Q   E
  |  | | |       |  |   |           |  | |  |  |    | |     | |
  /  / / /       /  /   /           /  / /  /  /    / /     / /

  W              Q  E E E  Q    E   H.         Q    Q   E E E Q   E
|--------------|-----------4s===2-|-2-------------|------------------|
|--------------|------------------|---------------|-----------3------|
|--------------|------2s4-(4)s==2-|-2-------------|------------------|
|--------------|------------------|---------------|-------2s4----/6--|
|--------------|------------------|---------------|------------------|
|--------------|------------------|---------------|------------------|


  E                              F#m   D       E
  Q  Q  Q  Q     Q   Q  E E Q    Q  Q  Q  Q    Q  E E Q  Q
  |  |  |  |     |   |  | | |    |  |  |  |    |  | | |  |
  /  /  /  /     /   /  / / /    /  /  /  /    /  / / /  /

  W             +W               W             H      Q  E E
|-------------|----------------|-------------|----------------|
|-5-----------|-(5)------------|-------------|----------------|
|-------------|----------------|-------------|----------------|
|-------------|----------------|-------------|-----------7-9--|
|-------------|----------------|-------------|----------------|
|-------------|----------------|-------------|----------------|


    A                                  F#m               D
     Q  Q  Q  Q      Q   E E E E E E   Q    Q   Q   Q    Q  Q  Q  E E
     |  |  |         |   | | | | | |   |    |   |        |  |  |  | |
     /  /  /         /   / / / / / /   /    /   /        /  /  /  / /

  a  W              +Q   Q   Q   Q     E Q.    +H        W
|----------------|-------------------|-----------------|--------------|
|----------------|-------------------|-----------------|--------------|
|----------------|-------------------|-----------------|--------------|
|-9s11-----------|-(11)----------7s==|=4-4-----(4)-----|--------------|
|----------------|-------------------|-----------------|--------------|
|----------------|-------------------|-----------------|--------------|


  A                              F#m          D
  E E E E Q  Q    Q  E E Q  Q    Q  Q  H      Q   Q    E  E Q
  | | | | |       |  | | |  |    |  |  |      |   |    |  | |
  / / / / /       /  / / /  /    /  /  /      /   /    /  / /

  W               H      Q  Q    W            Q.    E +E  Q   E
|---------------|--------------|------------|--------------------|
|---------------|--------------|------------|--------------------|
|---------------|--------------|------------|-------2-(2)--------|
|---------------|-----------7s=|=4----------|-0-----------2---4--|
|---------------|--------------|------------|--------------------|
|---------------|--------------|------------|--------------------|


  E                              Bm
  E E Q  Q  Q    Q  E E Q  E E   Q  Q  E E Q    Q   Q   E E  Q
  | | |  |  |    |  | | |  | |   |  |  | | |    |   |   | |  |
  / / /  /  /    /  / / /  / /   /  /  / / /    /   /   / /  /

                          
 Comments (click here to add a non-facebook comment)
Home | FAQs | Privacy | Terms | Advertise | Contact
Top 100 Tab Sites