Give Kudos?
Are you sure you want to give kudos to axehappy?

Add To Songbook?
Are you sure you want to add this song to your songbook?


2,722 bands | 35,151 songs
Search: Register FREE! | Login
Browse Songs:
Browse Bands:
Tool Panel
Discuss This Song

1 2 3 4 5



Mary Chapin Carpenter - I Feel Lucky (Lead)
Album: Come On Come On (1992)
Submitter: axehappy (47) on 1/21/02
Month Views: 22 | Total Views: 8,017
Moderator: Ray Terry | Report This Song?
Song Tools

Comment

Songbook

Kudos

Show Chords

Print

Mary Chapin Carpenter - I Feel Lucky (lead parts)

By axehappy - axehappy at countrytabs.com

***********************************************************************

/   =   slide up                h   =   hammer-on

\   =   slide down              b   =   bend

br  =   bend & release          p   =   pulloff

bh  =   bend & hold             r   =   release bend

x   =   dead note

***********************************************************************



INTRO LEAD BREAK


E------------------------------------7----------------------------|
B------10-10-10-10-10--10h12\--10b-10--------------9-10-----------|
G--9/11--------------11---------------9br-p7-9-----9-9------------|
D---------------------------------------------9-9--------7-7-7/9--|
A-----------------------------------------------------------------|
E-----------------------------------------------------------------|



2ND LEAD BREAK


E--10p7-7-10b--12bh-12r-p10-12-10b-----------------7------------|
B---------------------------------12\--10br-p7-7-10-------------|
G---------------------------------------------------9br-p7------|
D---------------------------------------------------------9-9\--|
A---------------------------------------------------------------|
E---------------------------------------------------------------|



MAIN SOLO


E---------12--------------------------------------------------
B-------12--15bh-15r-----15bh-15r-12-12-14br-p12-14--12--14b--
G--12/13-------------------------------------------13----x----
D--------------------------------------------------------x----
A-------------------------------------------------------------
E-------------------------------------------------------------


E---7-----------7-10b-7--7--------------7---7-----------------------|
B--7-10b-7-7-7h9---9b--10--------------7---7------------------------|
G-------------------------9br-p7-9-7-9b--9b--11p9p7-----------------|
D---------------------------------9----------------9----------------|
A----------------------------------------------------9-9-9-9-9-9-9--|
E-------------------------------------------------------------------|

 Comments (click here to add a non-facebook comment)
Home | FAQs | Privacy | Terms | Advertise | Contact
Top 100 Tab Sites