Give Kudos?
Are you sure you want to give kudos to WildCard76?

Add To Songbook?
Are you sure you want to add this song to your songbook?


2,626 bands | 34,391 songs
Search: Register FREE! | Login
Browse Songs:
Browse Bands:
Tool Panel
Discuss This Song

1 2 3 4 5





Matt King - A Woman Like You (Intro)
Submitter: WildCard76 (136) on 2/3/03
Month Views: 10 | Total Views: 3,359
Help! We need a moderator for this artist. | Report This Song?
Song Tools

Comment

Songbook

Kudos

Show Chords

Print

A WOMAN LIKE YOU
Matt King
From the CD "Five O'Clock Hero"
Atlantic Records


Intro


E--------------------------------------------------------
B---------3-1-------3-1-------3-1-----------------1------
G-------0---------0---------0------0------------0---0----
D-----0---------0---------2----------2---0--0h2----------
A-----------------------3--------------------------------
E---3---------3------------------------------------------


E------------------------------------------
B---------3-1-------3-1-------3-1----------
G-------0---------0---------0------0-------
D-----0---------0---------2----------0h2---
A-----------------------3------------------
E---3---------3----------------------------
 Comments (click here to add a non-facebook comment)
Home | FAQs | Privacy | Terms | Advertise | Contact
Top 100 Tab Sites