Give Kudos?
Are you sure you want to give kudos to WildCard76?

Add To Songbook?
Are you sure you want to add this song to your songbook?


2,626 bands | 34,395 songs
Search: Register FREE! | Login
Browse Songs:
Browse Bands:
Tool Panel
Discuss This Song

1 2 3 4 5





Merle Haggard - Big City (Solo)
Album: Big City (1981)
Submitter: WildCard76 (193) on 11/27/02
Month Views: 61 | Total Views: 13,263
Moderator: dantheman85x | Report This Song?
Song Tools

Comment

Songbook

Kudos

Show Chords

Print

E----------------------------12------------------------------------------
B-------------------12-13-14----14----------------12---------------------
G-------13----14-15----------------14----------13----13-12-11------------
D----14-------------------------------11-12-13----------------14-11------
A------------------------------------------------------------------------
E------------------------------------------------------------------------


  
E----------------------------------12------------------------------------
B-------12----------------------12----------14----12---------------------
G----13----13-12-11----------------------13----11--------13--------------
D-13----------------14---11---14-----------------------14--11-14---------
A----------------------------------------------------------------11------
E------------------------------------------------------------------------

 Comments (click here to add a non-facebook comment)
Home | FAQs | Privacy | Terms | Advertise | Contact
Top 100 Tab Sites