Give Kudos?
Are you sure you want to give kudos to WildCard76?

Add To Songbook?
Are you sure you want to add this song to your songbook?


2,616 bands | 34,296 songs
Search: Register FREE! | Login
Browse Songs:
Browse Bands:
Tool Panel
Discuss This Song

1 2 3 4 5





Merle Haggard - I Think I'll Just Stay Here And Drink (2nd Solo) (Solo)
Album: Back To the Barrooms (1980)
Submitter: WildCard76 (240) on 1/29/03
Month Views: 72 | Total Views: 7,230
Moderator: dantheman85x | Report This Song?
Song Tools

Comment

Songbook

Kudos

Show Chords

Print

I THINK I'll JUST STAY HERE AND DRINK
Merle Haggard


2nd Guitar Solo

E------------------------------------------------------------------------------------------
B------------------------------------------------------------------------------------------
G-----2-2----2-2-2-2-2--2---2-2------2---b4-b4--2---4----2h4-2--2-2-2-2-2------------------
D---4----------------------------3-4---4----------4---4------------------------------------
A-------------------------------------------------------------------------2-b2--2-0--------
E------------------------------------------------------------------------------------------


E------------------------------------------------------------------------------------------
B------------------------------------------------------------------------------------------
G-------------------------------------------------------------------------2---b4-b4-b4-b4--
D-----------------2--2--4-2---5p4p2-2--2-2--2--5p4p2--2-2-4-4--2--2-2-2-4---2--------------
A---(0)---0-0-3-4--------------------------------------------------------------------------
E------------------------------------------------------------------------------------------


E------------------------------5p0---0-----------------------------------------------------
B-------------------5---5----------4---3p2-0-2---------------------------------------------
G--2h4--2-2-2-2-4/6---6------------------------2p0---2-----------------------2---2---2/5---
D--------------------------------------------------4---2p0---------0-0-0-3h4---4-----------
A----------------------------------------------------------3h4-----------------------------
E------------------------------------------------------------------------------------------


E-----------------------------------------------------------------------------------5------
B----------------------------------------------------------------------------------5--6-5--
G--2/5/4p2-----2-2-------b4--b4--2---4---2----2----2--0--b7--b7--5----0---------5-7--------
D-----------4------3h4-------------4---4---------------------------7-------5-6h7-----------
A-----------------------------------------------------------------------5h7----------------
E------------------------------------------------------------------------------------------

E--------------------------5-x-x-x---------------------------------------------------------
B---b7-5-5-5-5---5--5/8p5----------5-0h4-3--------2h4--2-2-2--2-2--2-2-2-2-----------------
G--------------7-----------------------------b4------------------------------b2------------
D------------------------------------------------------------------------------------------
A------------------------------------------------------------------------------------------
E------------------------------------------------------------------------------------------

(this really isn't that hard....it's just a different take on the first solo.......)
 Comments (click here to add a non-facebook comment)
Home | FAQs | Privacy | Terms | Advertise | Contact
Top 100 Tab Sites