Give Kudos?
Are you sure you want to give kudos to taylor0155?

Add To Songbook?
Are you sure you want to add this song to your songbook?


3,302 bands | 38,082 songs
Search: Register FREE! | Login
Browse Songs:
Browse Bands:
Tool Panel
Discuss This Song

1 2 3 4 5



Micky & The Motorcars - Ain't In It For The Money (Lead)
Submitter: taylor0155 (0) on 4/15/11
Month Views: 533 | Total Views: 4,332
Moderator: rab05 | Report This Song?
Song Tools

Comment

Songbook

Kudos

Show Chords

Print

Aint in it for the money  Mickey and the motorcars

Intro:
-------------------------------------------------------------------------|---------
-------------------------------------------------------------------------|---------
-------4---7-4---4------5---9-5---5------7----11--7---7-----5---9-5---5--|-----4---
---3/5---5-----5----5/7---7-----7---7/9----9--------9-----7---7-----7----|-3/5---5-
-------------------------------------------------------------------------|---------
-------------------------------------------------------------------------|---------

-------------------------------------------------------3---------------------------
-------------------------------------------------------3---------------------------
--7-4---4------5---9-5---5-----7---11--7---7--5---7----0---------------------------
------5----5/7---7-----7---7/9---9-------9----5---7----0---------------------------
----------------------------------------------3---5----2---------------------------
-------------------------------------------------------3---------------------------

Solo
-----------------------------------------------------------------------------------
---------------------------------------------8-8-8-8-8-8-8--7-7-7-7-7-77b-7b-7b-5-
-----------------------------------------------------------------------------------
-----------------------------------------------------------------------------------
-----------------------5--7-5--5--2--3-2-------------------------------------------
--3---3-5-7-8-8-7-3----------------------3-----------------------------------------

-----------------------------------------------------------------------------------
--7-5----5-----------------------------8-10-12-13-----15-17-1919b-19b-19-17-------
-------7----7-5-4-5-4---4-------4-5-7----------------------------------------19----
----------------------7---7-5-7----------------------------------------------------
-----------------------------------------------------------------------------------
-----------------------------------------------------------------------------------

-----------------------------------------------------------------------------------
--17---------------------------------------------------------------------15-17-15--
-----19-17-16-17-16--19-17-16----16------------------------------------------------
------------------------------19-----19-17-19-17----------9-10-10-9----------------
-------------------------------------------------10-10-12-----------10-------------
-----------------------------------------------------------------------------------
                       Ending
---------------------|-------------------------------------------------------------
--15--12-13-12-------|-------------------------------------------------------------
---------------12----|-------------------------------------------------------------
---------------------|-------------------------------------------------------------
---------------------|----------------------5--7-5--5--2--3-2----------------------
---------------------|--3---3-5-7-8-8-7-3----------------------3-------------------
 Comments (click here to add a non-facebook comment)
Home | FAQs | Privacy | Terms | Advertise | Contact
Top 100 Tab Sites