Give Kudos?
Are you sure you want to give kudos to RagweedisNo.1?

Add To Songbook?
Are you sure you want to add this song to your songbook?


2,728 bands | 35,171 songs
Search: Register FREE! | Login
Browse Songs:
Browse Bands:
Tool Panel
Discuss This Song

1 2 3 4 5



Mike McClure - Don't You Say Anything (Intro)
Album: Everything Upside Down (2004)
Submitter: RagweedisNo.1 (0) on 11/6/03 4 comments
Month Views: 1 | Total Views: 4,125
Moderator: aggiekelton | Report This Song?
Song Tools

Comment

Songbook

Kudos

Show Chords

Print

Mike McClure Band
Don't You Say Anything
Brass Knuckles EP

INTRO:

e-------------------------
B-------------------------
G-------------------------
D-------------------------
A---/6---4---2------------
E-------------------------

Fixed.  Courtesy of LevyJ
 Comments (click here to add a non-facebook comment)
This is the intro riff; the song is in key of "E"


A E

e-------------0------------------0
B-------------0------------------0
G-------------2------------------1
D---/6--4--2--2-----/6--4--2-----2
A-------------0------------------2
E--------------------------------0
-LevyJ04 | 11/28/2003
Thanks Levy. I knew I was off, but hey, never hurts to try.

rock on.
-RagweedisNo.1 | 12/17/2003
Levy Loo...is that you?
-LacyJeanG | 5/12/2004
there is also a harmony riff that is played at the same time as the lead riff

e ------0----------0-----
b-------0----------0-----
g-4-2-1-2----4-2-1-1-----
d-------2----------2-----
a-------0----------2-----
e------------------0-----

it gives it the full sound
-LevyJ04 | 8/25/2004
Home | FAQs | Privacy | Terms | Advertise | Contact
Top 100 Tab Sites