Give Kudos?
Are you sure you want to give kudos to WildCard76?

Add To Songbook?
Are you sure you want to add this song to your songbook?


2,625 bands | 34,379 songs
Search: Register FREE! | Login
Browse Songs:
Browse Bands:
Tool Panel
Discuss This Song

1 2 3 4 5





Neal McCoy - Wink (Intro)
Album: No Doubt About It (1994)
Submitter: WildCard76 (197) on 1/23/03
Month Views: 13 | Total Views: 3,868
Moderator: dantheman85x | Report This Song?
Song Tools

Comment

Songbook

Kudos

Show Chords

Print

WINK
Neal McCoy
Intro

E----------------0---------0--0--------------------------------0--------0-0--------
B----------------0---------0--0-------2-------0----------------0--------0-0--------
G--------------------------9--9-------0-------0----------------9--------9-9--------
D-------2------------------9--9----------------------2---------9--------9-9--------
A-----2----------------------------0-----0--0-----2--------------------------------
E---------b3--0-----0---0-------------------------------b3--0-----0--0-------------

E-----------------------------------0-------0--------0-----0-----------------------
B--------------------------------------------------------------0-0-0--0-0-0-0-0----
E--------------------------2---2h4------2h4-----2h4-----2--------------------------
D---b4--4--2--b4--4--2-----------------------------------------2-2-2--4-4-4-2-2----
A-----------------------4----------------------------------------------------------
E----------------------------------------------------------------------------------
 Comments (click here to add a non-facebook comment)
Home | FAQs | Privacy | Terms | Advertise | Contact
Top 100 Tab Sites