Give Kudos?
Are you sure you want to give kudos to skachotic?

Add To Songbook?
Are you sure you want to add this song to your songbook?


2,750 bands | 35,301 songs
Search: Register FREE! | Login
Browse Songs:
Browse Bands:
Tool Panel
Discuss This Song

1 2 3 4 5



Nickel Creek - This Side (mandolin Solo For Guitar) (Solo)
Album: This Side (2002)
Submitter: skachotic (0) on 10/22/04
Month Views: 9 | Total Views: 2,767
Moderator: p8nter21 | Report This Song?
Song Tools

Comment

Songbook

Kudos

Show Chords

Print

Artist:  Nickel Creek
Song:  This Side
Mandolin Solo transcribed for 6-string guitar (EADGBE
)      
Tabbed by: Skachotic (Skachotic at aol.com)
                                                   
E||-----0--------0-----2-------4-----2-----0--2--4--9--
B||--0-----0/-2-----2-----2-------2-----2--------------
G||----------------------------------------------------
D||----------------------------------------------------
A||----------------------------------------------------
E||----------------------------------------------------
                                                                            
--9-----7-----7--9--12--0----9--7--9--9--9--7--7--9----9--12--12--0---------
-----------9-----------------------9--9--9--7--7--9----9--12--12---------9--
-----9---------------------------------------------------------------11-----
----------------------------------------------------------------------------
----------------------------------------------------------------------------
----------------------------------------------------------------------------
                                                                    
--------------------------------------------------------------12--
--------------------12--12------------14--14--12------12--14------
--11--9------9--11----------13----13--------------13--------------
---------11-------------------------------------------------------
------------------------------------------------------------------
------------------------------------------------------------------

                         
------0--0--0--0--|
---------0-----0--|
------3/----3/----|
--14--1/-2--1/-2--|
------------------|
------------------|
 Comments (click here to add a non-facebook comment)
Home | FAQs | Privacy | Terms | Advertise | Contact
Top 100 Tab Sites