Give Kudos?
Are you sure you want to give kudos to mammy?

Add To Songbook?
Are you sure you want to add this song to your songbook?


2,831 bands | 36,009 songs
Search: Register FREE! | Login
Browse Songs:
Browse Bands:
Tool Panel
Discuss This Song

1 2 3 4 5



Pat Green - If I Had Me A Million (Tab)
Submitter: mammy (8) on 3/28/02 1 comment
Month Views: 8 | Total Views: 8,476
Moderator: pumaboy2005 | Report This Song?
Song Tools

Comment

Songbook

Kudos

Show Chords

Print

Written by: Green
  
      D                 A               G             A 

-----2-------2--|-----0-------0--|-----3-------3--|-----0-------0-------------
-------3-------3|-------2-------2|-------3-------3|-------2-------2-----------
---2-------2----|---2-------2----|---0-------0----|---2-------2---------------
-0-------0------|-2-------2------|-0-------0------|-2-------2-----------------
----------------|----------------|----------------|---------------------------
----------------|----------------|----------------|---------------------------


This is the picking pattern through out the whole song. It sounds a little different at 
the very end but I think it's just the dobro throwing me off...any corrections are welcomed.
Hope you enjoy :)

************************************************************************************
INTRO
 D   A   G   A

VERSE I

D                              A
If I had me a million I would build you a mansion, 
   G                               A
a hundred miles from nowhere with all a girl could need, 
     D                                 A
We would run through the hallways and dance out in the backyard, 
   G                               A
if we ain't got no neighbors ain't noone will see.

VERSE II
       D                           A
and if I had me a speed plane we'd fly across the land, 
G                             A
settle in some little border town, 
      D                    A
we'd drink some margaritas and dance to mariachis, 
G                             A                       D
put you on my speed plane and I would bring you back home.

D   A   G   A

VERSE III
       D                         A
and if I had me a steamboat we'd sail across the ocean blue, 
G                           A
dock in some little port of call, 
D                         A                
we would have a fine time with Swiss cheese and French wine, 
G                          A
put you on my steamboat and I would bring you back home.

D   A   G   A   D   A   G   A

    D                         A 
But I ain't got a million and I ain't got a speed plane, 
G                            A
I ain't got no boat upon the sea, 
         D                                        A
all I've got are these two strong arms and i can hold you so tightly, 
    G                           A                       D
so baby won't you, won't you please, come back home to me.

A   G   A  

         D                                        A
all I've got are these two strong arms and I can hold you so tightly, 
    G                           A                       D
so baby won't you, won't you please, come back home to me.

A   G   A   D   A   G   A   D
 Comments (click here to add a non-facebook comment)
I think your missing a note in each chord....this is how i tabbed it out see what you think

D A G
----2----------2-----|------0----------0-----|------3----------3------|
------3----------3---|--------2----------2---|--------3----------3----|
--2-----2----2-----2-|----2-----2----2-----2-|----0-----0----0-----0--|
0----------0---------|--2----------2---------|--0----------0----------|
---------------------|-----------------------|------------------------|
---------------------|-----------------------|------------------------|

A
----0----------0-----
------2----------2---
--2-----2----2-----2-
2----------2---------
---------------------
---------------------
-ipitch4wm | 3/23/2004
Home | FAQs | Privacy | Terms | Advertise | Contact
Top 100 Tab Sites