Give Kudos?
Are you sure you want to give kudos to mammy?

Add To Songbook?
Are you sure you want to add this song to your songbook?


2,725 bands | 35,156 songs
Search: Register FREE! | Login
Browse Songs:
Browse Bands:
Tool Panel
Discuss This Song

1 2 3 4 5



Pat Green - Threadbare Gypsy Soul (Chord)
Submitter: mammy (16) on 2/21/02 4 comments
Month Views: 14 | Total Views: 10,817
Moderator: pumaboy2005 | Report This Song?
Song Tools

Comment

Songbook

Kudos

Show Chords

Print

Author/Artist: Pat Green
Title: Threadbare Gypsy Soul
Album: Three Days
Transcribed by: Mammy
Email: mammycc_05 at yahoo.com

Capo on 2nd fret


  G       Cadd9      Em       D        C                                      

--3----|----3----|--------|---2---|-------------------------------------------
--3----|----3----|--------|---3---|----1--------------------------------------
-------|---------|--------|---2---|-------------------------------------------
-------|----2----|----2---|-------|----2--------------------------------------
--2----|----3----|----2---|-------|----3--------------------------------------
--3----|---------|--------|-------|-------------------------------------------
   Intro for Guitar #1:                                                       
                           D run  (at the end of the last D in the intro)
--------------|-----------|-----------------------------------------------------
--------------|-----------|----3------------------------------------------------
------3-----3-|-----------|-2/4---4\2-0-----------------------------------------
----0-----0---|-8x--------|------------4/5--------------------------------------
--5-----6-----|-----------|-----------------------------------------------------
--------------|-----------|-----------------------------------------------------
                                                                              
G                    
Got myself a threadbare gypsy soul
Cadd9                                             G
Like to dance and drink and go wherever the wind blows     
Em                               D
Gotta a little threadbare gypsy soul
Cadd9           D              G
Gotta little threadbare gypsy soul

(repeat chords of verse #1)

Gotta little wild streak in my heart
I guess that I have had it since I heard the music start
I gotta little wild streak in my heart
I gotta little threadbare gypsy soul


CHORUS
Em                           D
I like to hear the highway sounds
Cadd9                        D
And I don't think that I'll ever settle down
C                   D
I can't change and it's a sin
G         G/F#         Em 	 
Hope St. Peter's gonna let me in 
C        D                    G
Come on Pete won't you let me in


(same chords as verse #1)

I wear this cowboy hat up on my head
And you can take it off me some time after I am dead
Gotta cowboy hat up on my head
Gotta little threadbare gypsy soul

(same chords as verse #1)

I wear these crusty shoes down on my feet
I could write a book about the places that they've seen
I gotta these crusty shoes down on my feet
I got a little wild streak in my heart


REPEAT CHORUS

Lead:  play chords of chorus

(same chords as verse #1)

I know this crazy living just ain't right
Most of the time I'm smoking, drinking, looking for a fight
But I've been talking to Jesus every day
And I've been talking to Jesus every day

(same chords as verse #1)

And I got this girl back home I call my wife
If you ever meet her, I swear she would change your life
She's gotta little wild streak in her heart
But she’s been saying hallelujah every day

____________
CHORDS
G     =   320033
Cadd9 =   X32033
Em    =   022000
C     =   X32010
D     =   X00232
G/F#  =   200033
 
 Comments (click here to add a non-facebook comment)
the last chord of the verse is G not D
-kahlua | 10/13/2002
the walk down in the chorus from G to Em should in between be a
G/F#. so it should be G G/F# Em
-Baumann | 2/7/2003
try playing the last chords of verse#1 from cadd9 to D and then end
on the G
-ben french | 2/17/2003
You guys are correcto. I've fixed it + added
the chord formations.
-mammy | 2/18/2003
Home | FAQs | Privacy | Terms | Advertise | Contact
Top 100 Tab Sites