Give Kudos?
Are you sure you want to give kudos to mammy?

Add To Songbook?
Are you sure you want to add this song to your songbook?


2,831 bands | 36,024 songs
Search: Register FREE! | Login
Browse Songs:
Browse Bands:
Tool Panel
Discuss This Song

1 2 3 4 5



Pat Green - Three Days (Solo)
Submitter: mammy (15) on 3/12/02 5 comments
Month Views: 11 | Total Views: 7,047
Moderator: pumaboy2005 | Report This Song?
Song Tools

Comment

Songbook

Kudos

Show Chords

Print

This first bar (starting at 5)is the guitar playing the notes that the fiddle is playing 
on the first 1/2 of the lead. The second bar (starting at 12) is the guitar playing...well,
the guitar!  :) Enjoy!

------------------------------------------------------------------------------
-5-4-0---5-4-0-7---5-4-0---5-4-0-----4-5-7---4-5-7---5-4-2-0---54202----------
----------------------------------------------------------------------2-1-----
---------------------------------4---------------------------------------4----
------------------------------------------------------------------------------
------------------------------------------------------------------------------
                                                                              

-------------------------------14-16-17-16-14\12-12---------------------------
-12b12b-------12-14-12b--12-12-----------------------10-----------------------
---------11-13----------------------------------------------------------------
------------------------------------------------------------------------------
------------------------------------------------------------------------------
------------------------------------------------------------------------------
   
 Comments (click here to add a non-facebook comment)
im new at reading tabs could someone help me? All i need to know is what is the ''b''after the 12 i just cant figure it out?
-leviellis | 11/5/2004
the 'b' after the 12 means to bend the string. (hold the 2nd string on the 12th fret, then bend it up towards the 3rd string.) hope this helps.
-mammy | 11/7/2004
thank you that helps alot
-leviellis | 11/7/2004
awsome tab! sounds jist like the song
also very easy to play
-rickjames317 | 3/13/2005
this is the best solo i've seen, its right on and real easy to play, awesome job
-stevenslywka1 | 5/15/2008
Home | FAQs | Privacy | Terms | Advertise | Contact
Top 100 Tab Sites