Give Kudos?
Are you sure you want to give kudos to mammy?

Add To Songbook?
Are you sure you want to add this song to your songbook?


2,831 bands | 36,024 songs
Search: Register FREE! | Login
Browse Songs:
Browse Bands:
Tool Panel
Discuss This Song

1 2 3 4 5



Pat Green - Wrong Side Of Town (Lead)
Submitter: mammy (15) on 3/28/03
Month Views: 13 | Total Views: 2,888
Moderator: pumaboy2005 | Report This Song?
Song Tools

Comment

Songbook

Kudos

Show Chords

Print

Wrong Side of Town - lead
by Pat Green

/  =  slide up
\  =  slide down
b  =  bend
time above bars = time it's played on recording

~^~^~^~^~^~^~^~^~^~^~^~^~^~^~^~^~^~^~^~^~^~^~^~^~^~^~^~^~^~^~^~^~^~^

      1:05
e|--------------------------|e
B|---------------8----------|B
G|--7/9-\7-\5-/9------------|G
D|-----------------9----10--|D
A|-------------------10-----|A
E|--------------------------|E
                                                                              
     2:15
e|--------------------------------------------12-----------|e
B|--------10-----------------------8-10-10/13----12----13--|B
G|--7/9-9----9-9/12---7/9-9--5-9--------------------12-----|G
D|---------------------------------------------------------|D
A|---------------------------------------------------------|A
E|---------------------------------------------------------|E
                                                                              
    3:01                 4:08
e|---------------------|-----------------------------|e
B|---8/10-8------------|--8/10--8--------------------|B
G|-----------7-9--/12--|-----------7-9--/12-------5--|G
D|---------------------|--------------------9\7\5----|D
A|---------------------|-----------------------------|A
E|---------------------|-----------------------------|E
                                                                              

~^~^~^~^~^~^~^~^~^~^~^~^~^~^~^~^~^~^~^~^~^~^~^~^~^~^~^~^~^~^~^~^~^~^
enjoy :)
mammycc_05 at yahoo.com
 Comments (click here to add a non-facebook comment)
Home | FAQs | Privacy | Terms | Advertise | Contact
Top 100 Tab Sites