Give Kudos?
Are you sure you want to give kudos to madtabber?

Add To Songbook?
Are you sure you want to add this song to your songbook?


2,716 bands | 35,125 songs
Search: Register FREE! | Login
Browse Songs:
Browse Bands:
Tool Panel
Discuss This Song

1 2 3 4 5



Patsy Cline - I Fall To Pieces (Tab)
Submitter: madtabber (1) on 12/12/05
Month Views: 12 | Total Views: 5,927
Moderator: Musikman212 | Report This Song?
Song Tools

Comment

Songbook

Kudos

Show Chords

Print

Patsy Cline
I Fall To Pieces

And excellent song by Patsy Cline
I tabbed out the intro, rythym, and bass line.
Throw it together and it sonds damn good.
If you wish I also have the drum tabbed for this song
Ill be glad to email you it.

madtabber at gmail.com

Key
~ Let RIng

Intro
E|----------------1----|--3------------3----|--5--------1-------1------|
B|------3----4---------|--------------------|----------------------4~~-|
G|---------------------|--------------------|--------------------------|
D|----------------0----|--1------------1----|--3-----------------------|
A|------1----3---------|--------------------|-----------0~~~----0--1-~~|
E|---------------------|--------------------|--------------------------|
                                                                               
---------------------|
-------3~~~----------|
---------------------|
---------------------|
---------------------|
---------------------|


Play this on the 9th, 18th, 45th, & 53rd Measure     
                                                         
|----------13----12----11~~~-|
|----------------------------|
|----------------------------|
|----------------------------|
|----------------------------|
|----------------------------|


Rythym

E|------------------|----------------------|-------1---------1----|
B|------------------|-------4---------4----|-------1---------1----|
G|------------------|-------3---------3----|-------2---------2----|
D|------------------|-------5---------5----|--3-------------------|
A|------------------|--6-------------------|------------3---------|
E|------------------|------------6---------|----------------------|


                                                                     
----------------------|----------------------|----------------------|
-------3---------3----|-------3---------3----|-------3---------3----|
-------3---------3----|-------3---------3----|-------3---------3----|
-------3---------3----|-------3---------3----|-------3---------3----|
--1-------------------|--1-------------------|--1-------------------|
------------1---------|------------1---------|------------1---------|


                                                                     
----------------------|-------1---------1----|-------1--------------|
-------4---------4----|-------1---------1----|-------1---------0----|
-------3---------3----|-------2---------2----|-------2---------1----|
--1----5---------5----|--3-------------------|--3---------3----2----|
------------1---------|------------3---------|----------------------|
----------------------|----------------------|----------------------|


                                                                     
----------------------|-------1---------1----|----------------------|
-------4---------4----|-------1---------1----|-------3---------3----|
-------3---------3----|-------2---------2----|-------3---------3----|
--1----5---------5----|--3-------------------|-------3---------3----|
------------1---------|------------3---------|--1-------------------|
----------------------|----------------------|------------1---------|


                                                                     
----------------------|----------------------|----------------------|
-------3---------3----|-------3---------3----|-------4---------4----|
-------3---------3----|-------3---------3----|-------3---------3----|
-------3---------3----|-------3---------3----|--1----5---------5----|
--1-------------------|--1-------------------|------------1---------|
------------1---------|------------1---------|----------------------|


                                                                     
-------1---------1----|-------1---------0----|----------------------|
-------1---------1----|-------1---------0----|-------4---------4----|
-------2---------2----|-------2---------1----|-------3---------3----|
--3-------------------|--3---------3----2----|--1----5---------5----|
------------3---------|----------------------|------------1---------|
----------------------|----------------------|----------------------|


                                                                     
-------1---------1----|----------------------|----------------------|
-------1---------1----|-------3---------3----|-------3---------3----|
-------2---------2----|-------3---------3----|-------3---------3----|
--3-------------------|-------3---------3----|-------3---------3----|
------------3---------|--1-------------------|--1-------------------|
----------------------|------------1---------|------------1---------|


                                                                     
----------------------|----------------------|----------------------|
-------3---------3----|-------3---------3----|-------4---------4----|
-------3---------3----|-------3---------3----|-------3---------3----|
-------3---------3----|-------3---------3----|--1----5---------5----|
--1-------------------|--1-------------------|------------1---------|
------------1---------|------------1---------|----------------------|


Bass
G|------------------|-------0----3----0----|-------2----5----2----|
D|------------------|--1-------------------|--3-------------------|
A|------------------|----------------------|----------------------|
E|------------------|----------------------|----------------------|


                                                                     
--3----0--------------|----------------------|----------------------|
------------3----0----|----------------------|-------0----3----0----|
----------------------|--1--------------0----|--1-------------------|
----------------------|-------1----3---------|----------------------|


                                                                     
-------0----3----0----|-------2----5----2----|----------------------|
--1-------------------|--3-------------------|--3---------3----2----|
----------------------|----------------------|-------3--------------|
----------------------|----------------------|----------------------|Repeat for duration of song
 Comments (click here to add a non-facebook comment)
Home | FAQs | Privacy | Terms | Advertise | Contact
Top 100 Tab Sites