Give Kudos?
Are you sure you want to give kudos to aggiekelton?

Add To Songbook?
Are you sure you want to add this song to your songbook?


2,733 bands | 35,224 songs
Search: Register FREE! | Login
Browse Songs:
Browse Bands:
Tool Panel
Discuss This Song

1 2 3 4 5



Randy Rogers Band - Again (Intro)
Submitter: aggiekelton (0) on 12/21/04 1 comment
Month Views: 3 | Total Views: 11,578
Moderator: Beau2137 | Report This Song?
Song Tools

Comment

Songbook

Kudos

Show Chords

Print

Again -intro
Randy Rogers Band

The chords to Cross Canadian Ragweed’s version, which are already on here, are 
pretty much the same, but Randy plays the intro a little differently.  This is 
basically how he plays it.  Listen to the CD to get it right.


Intro:

e-----------------
B-----------------
G-----------M-----
D---------2-M-----
A-0-0-3h4---------
E-------------3---

The “M” signifies striking the strings muted.
 Comments (click here to add a non-facebook comment)
got all wrong man it goes like this
use ur index finger and bar an A chord
e------------------------------------------
b------------------------------------------
g------------------------------------------
d-2-2-2---2--------------------------------
a-0-0-3h4-0--------------------------------
e-----------333----------------------------
play it kinda hard and sloppy

-themastertater0 | 1/17/2006
Home | FAQs | Privacy | Terms | Advertise | Contact
Top 100 Tab Sites