Give Kudos?
Are you sure you want to give kudos to yinielin?

Add To Songbook?
Are you sure you want to add this song to your songbook?


2,732 bands | 35,202 songs
Search: Register FREE! | Login
Browse Songs:
Browse Bands:
Tool Panel
Discuss This Song

1 2 3 4 5



Rascal Flatts - I Melt (Lead)
Album: Melt (2002)
Submitter: yinielin (0) on 7/20/03 1 comment
Month Views: 4 | Total Views: 8,116
Moderator: Ray Terry | Report This Song?
Song Tools

Comment

Songbook

Kudos

Show Chords

Print

By:yinielin
Rascal Flatts, I Melt

This is the guitar part for the
first instrumental break that they do 


E-------------------------
B--7bhr--9-10-12-5--------
G-------------------------
D-------------------------
A-------------------------
E-------------------------

E-------------------------
B--7br-5--9-10-12-5-------
G-------------------------
D-------------------------
A-------------------------
E-------------------------
 Comments (click here to add a non-facebook comment)
This is how I hear it......

E-------------------------
B--7br--5--9-10-9\5-------
G-------------------------
D-------------------------
A-------------------------
E-------------------------


E-------------------------
B--7br--5--9-10-9\5-------
G-------------------------
D-------------------------
A-------------------------
E-------------------------
-cmtboy | 7/20/2003
Home | FAQs | Privacy | Terms | Advertise | Contact
Top 100 Tab Sites