Give Kudos?
Are you sure you want to give kudos to laurren?

Add To Songbook?
Are you sure you want to add this song to your songbook?


2,722 bands | 35,151 songs
Search: Register FREE! | Login
Browse Songs:
Browse Bands:
Tool Panel
Discuss This Song

1 2 3 4 5



Rascal Flatts - Life Is A Highway (Bass)
Album: Me and My Gang (2006)
Submitter: laurren (3) on 5/18/09
Month Views: 6 | Total Views: 2,894
Moderator: Ray Terry | Report This Song?
Song Tools

Comment

Songbook

Kudos

Show Chords

Print

Tuning:STANDARD
Intro (x2)
G|--------------------------------------------------------------------------|
D|--------------------------------------------------------------------------|
A|--5--3--1-1-----1--0----------1--0--3-3-----1-0-3-3-----------------------|
E|----------------------1-1-------------------------------------------------|
  (x2)
G|--------------------------------------------------------------------------|
D|--------------------------------------------------------------------------|
A|-3-3-3-3-3-3-3-3---------------------3-3-3-3-3-3-3-3----------------------|
E|-------------------1-1-1-1-1-1-1-1---------------------1-1-1-1-1-1-1-1----|

G|--------------------------------------------------------------------------|
D|--------------------------------------------------------------------------|
A|-5-5-5-5---3-3-3-3---1-1-1-1----------------------------------------------|
E|-------------------------------3-3-3-3------------------------------------|
Chorus  (x2)
G|--------------------------------------------------------------------------|
D|--------------------------------------------------------------------------|
A|-5-3-1-1---1-0-------1-0-3-3---1-0-3-3------------------------------------|
E|---------------1-1--------------------------------------------------------|
  (x2)
G|--------------------------------------------------------------------------|
D|--------------------------------------------------------------------------|
A|-3-3-3-3-3-3-3-3---------------------3-3-3-3-3-3-3-3-3--------------------|
E|-------------------1-1-1-1-1-1-1-1-----------------------1-1-1-1-1-1-1-1--|

G|--------------------------------------------------------------------------|
D|--------------------------------------------------------------------------|
A|-5-5-5-5---3-3-3-3---1-1-1-1----------------------------------------------|
E|-------------------------------3-3-3-3-3-3--------------------------------|
Chorus  (x4)
G|--------------------------------------------------------------------------|
D|--------------------------------------------------------------------------|
A|-5-3-1-1---1-0-------1-0-3-3---1-0-3-3------------------------------------|
E|---------------1-1--------------------------------------------------------|
  (x2)
G|--------------------------------------------------------------------------|
D|--------------------------------------------------------------------------|
A|-----------5-5-5-5---1-1-1-1---3-3-3-3------------------------------------|
E|-3-3-3-3------------------------------------------------------------------|
Chorus  (x4)
G|--------------------------------------------------------------------------|
D|--------------------------------------------------------------------------|
A|-5-3-1-1---1-0-------1-0-3-3---1-0-3-3------------------------------------|
E|---------------1-1--------------------------------------------------------|
 Comments (click here to add a non-facebook comment)
Home | FAQs | Privacy | Terms | Advertise | Contact
Top 100 Tab Sites