Give Kudos?
Are you sure you want to give kudos to taylor7458?

Add To Songbook?
Are you sure you want to add this song to your songbook?


2,722 bands | 35,144 songs
Search: Register FREE! | Login
Browse Songs:
Browse Bands:
Tool Panel
Discuss This Song

1 2 3 4 5



Reckless Kelly - Seven Nights In Ire - Fiddle (Lead)
Submitter: taylor7458 (0) on 5/25/10 1 comment
Month Views: 4 | Total Views: 10,030
Moderator: rab05 | Report This Song?
Song Tools

Comment

Songbook

Kudos

Show Chords

Print

Seven nights in Ire - Fiddle  Please correct if you find problems. - Jack

Legend
0   1   2   3   4   5   6   7
E||-F-|-F#|-G-|-G#|-A-|-A#|-B-|-------
A||-A#|-B-|-C-|-C#|-D-|-D#|-E-|-------
D||-Eb|-E-|-F-|-F#|-G-|-G#|-A-|-------
G||-G#|-A-|-A#|-B-|-C-|-C#|-D-|-------

intro
------------------------------------------
--0--0---------------------------------0h3
--0--0-h2-2--5--2\1\0------------0h2h5----
-----------------------5-2-0-2h5----------

-------0-0--------------------------------
-3p2p0-----0-3p2p0------------------------
-------------------5-7-0--2\1\0-----------
---------------------------------5-2-0----

-----------------------------0-0----------
----------------0h3---3p2p0-------0-3p2p0-
----------0h2h5---------------------------
-2---2h5----------------------------------

------------------------------------------
------------------------------------------
-5-7-0--2\1\0-----------------0h2--0------
---------------5-2-0---2--2h5--------5p2p0

------|-repeat through verse-|------------
------|----------------------|------------
------|----------------------|-0h2h3p2h3-5
--2---|---2-2-2-2--5-5--0-0--|------------

------------------------------------------
------------------------------------------
-3p2p0----2-0-2-3-2---0---0--2-0--------0-
------------------------5--------5p2h5----

------------------------------------------
------------------------------------------
-0/1/2\1\0--------------------------------
------------2---5---0---2---5---0---------

-----Verse---------|----------------------
-------------------|-------------0-2h3h5--
-------------------|-0h2h3p2h3-5----------
-2-2-2-2--5-5--0-0-|----------------------

------------------------------------------
--2h3p2--0h2h3p2---0---0--2-0--------0-0-0
---------------------5---------5p2h5------
------------------------------------------

--------------|-verse--------------|------
--------------|--------------------|------
--------------|--------------------|------
--2-5-0-2-5-0-|-2-2-2-2--5-5--0-0--|------


------------------------------------------
------------------------------------------
-------------------------------0h2h3p2h3-5
------------------------------------------

------------------------------------------
------------------------------------------
-3p2p0----2-0-2-3-2---0---0--2-0--------0-
------------------------5--------5p2h5----

------------------------------------------
------------------------------------------
-0/1/2\1\0--------------------------------
------------2---5---0---2---5---0---------

-----Verse---------|----------------------
-------------------|----------------------
-------------------|-0h2h3p2h3-5--3p2p0---
-2-2-2-2--5-5--0-0-|----------------------

------------------------------------------
------------------------------------------
-2-0-2-3-2--0---0--2-0-------0--/5--------
--------------5--------5p2h5--------------

------------------------------------------
------------------------------------------
-3p2h3--5--3p2p0---2-0-2-3-2--0---0-2-0---
--------------------------------5---------

------------------------------------------
------------------------------------------
--------0--0/1/2\1\0----------------------
--5p2h5---------------0/1/2---------------

 Comments (click here to add a non-facebook comment)
what do the p and h mean?
-treysmallwood86 | 12/28/2015
Home | FAQs | Privacy | Terms | Advertise | Contact
Top 100 Tab Sites