Give Kudos?
Are you sure you want to give kudos to WildCard76?

Add To Songbook?
Are you sure you want to add this song to your songbook?


2,615 bands | 34,295 songs
Search: Register FREE! | Login
Browse Songs:
Browse Bands:
Tool Panel
Discuss This Song

1 2 3 4 5





Rhett Akins - Don't Get Me Started (Lead)
Album: Somebody New (1996)
Submitter: WildCard76 (229) on 12/7/02
Month Views: 14 | Total Views: 3,430
Moderator: Georgewb | Report This Song?
Song Tools

Comment

Songbook

Kudos

Show Chords

Print

|-------------------------------5------------------------------------
|-----------------------------5----5---5---5---5---------------------
|-------------1---1h2p1------------4---4---4---4---------------------
|-----------2-------------4------------------------------------------
|--0--0--2/4---------------------------------------------------------
|--------------------------------------------------------------------

|--------------------------------------------------------------------
|--------------------------------------------------------------------
|-------------1--1h2p1-----------------------------------------------
|-----------2-------------4-----2/4\2--------------------------------
|--0--0--2/4---------------------------------------------------------
|--------------------------------------------------------------------
 Comments (click here to add a non-facebook comment)
Home | FAQs | Privacy | Terms | Advertise | Contact
Top 100 Tab Sites