Give Kudos?
Are you sure you want to give kudos to mammy?

Add To Songbook?
Are you sure you want to add this song to your songbook?


2,831 bands | 36,009 songs
Search: Register FREE! | Login
Browse Songs:
Browse Bands:
Tool Panel
Discuss This Song

1 2 3 4 5



Robert Earl Keen - Blow You Away (Banjo)
Submitter: mammy (8) on 4/23/03 1 comment
Month Views: 11 | Total Views: 3,834
Moderator: countrified | Report This Song?
Song Tools

Comment

Songbook

Kudos

Show Chords

Print

Blow You Away - banjo
by Robert Earl Keen, Jr.

This is the banjo part (that I can only hear being play during the 
last verse and repeated after the last verse)

"The matress is mildewed and lumpy 
But you fall fast asleep where you lay
Under the lump there's a 20 gauge pump
Cause they'd just as soon blow you away"

It's in the key of A and I figured it out with the capo on the 2nd fret.

~^~^~^~^~^~^~^~^~^~^~^~^~^~^~^~^~^~^~^~^~^~^~^~^~^~^~^~^~^~^~^~^~^~^
Play 2 times through

D|--0---0---2--0---0--------|--0---0---2--0---0-2-0-0--|D
B|---------------1---1------|---------------1----------|B
G|---------------------2-2--|--------------------------|G
D|--------------------------|--------------------------|D
G|----0---0---------------- |----0---0-----------------|G

                                                                              

D|--0---0---2--0---0--2--0-------------------------------------|D
B|---------------1----------------0--1-------------------------|B
G|--------------------------0--2-------------------------------|G
D|--------------------------------------2--0----------0-2-0-0--|D
G|----0---0-----------------------------------4--2--4----------|G
                                                                              
~^~^~^~^~^~^~^~^~^~^~^~^~^~^~^~^~^~^~^~^~^~^~^~^~^~^~^~^~^~^~^~^~^~^

enjoy :)
mammycc_05 at yahoo.com
 Comments (click here to add a non-facebook comment)
the last 9 notes should all be moved one string
-mammy | 2/13/2005
Home | FAQs | Privacy | Terms | Advertise | Contact
Top 100 Tab Sites