Give Kudos?
Are you sure you want to give kudos to mammy?

Add To Songbook?
Are you sure you want to add this song to your songbook?


2,831 bands | 36,009 songs
Search: Register FREE! | Login
Browse Songs:
Browse Bands:
Tool Panel
Discuss This Song

1 2 3 4 5



Robert Earl Keen - Death Of Tail Fitzsimmons (Tab)
Submitter: mammy (8) on 7/8/03 3 comments
Month Views: 11 | Total Views: 7,452
Moderator: countrified | Report This Song?
Song Tools

Comment

Songbook

Kudos

Show Chords

Print

The Death of Tail Fitzsimmons
by Robert Earl Keen, Jr.

This is the first guitar part of the song. I haven't been able to figure the second one out
yet. This starts the song and plays through the first 1:00.

e------------------------------------------------------------------------------e
B--------------2----------------------2-------------------------2--------------B
G------------2---4-2-1--------------2---4-2-1-----------------2----4--2--1-----G
D------0-2-4-----------4------0-2-4-----------4------0--2--4-------------------D
A--2-4--------------------2-4--------------------2-4---------------------------A
E------------------------------------------------------------------------------E
                                                                              

e------------------------------------------------------------------------------e
B-------------------------------------------0h2--------------------------------B
G--------------------------------2--------------2------------------------------G
D--2h4-2h4-2h4-----2h4-2h4-2h4------2h4-2h4-------4--2h4-2---------------------D
A--------------4---------------4---------------------------4-0h2-4p2-----------A
E----------------2---------------------------------------------------4-2-4h5-2-E
                                                                              
e------------------------------------------------------------------------------e
B-------------------------------------------0h2--------------------------------B
G--------------------------------2--------------2------------------------------G
D--2h4-2h4-2h4-----2h4-2h4-2h4------2h4-2h4-------4--2h4-2---------------------D
A--------------4---------------4---------------------------4-0h2-4p2-----------A
E----------------2---------------------------------------------------4-2-4h5-2-E

e------------------------------------------------------------------------------e
B------2p0-----------------2p0--------------2----------------------------------B
G--2h4-----2-4-1-2------2h4----2-4p1----2h4---2-4-1-2--------------------------G
D------------------h4-4--------------4----------------h44----------------------D
A---------------------------------------------------------0h2-0h2--2/4---------A
E------------------------------------------------------------------------------E
                                                                              
e------------------------------------------------------------------------------e
B-------------------------------------------0h2--------------------------------B
G--------------------------------2--------------2------------------------------G
D--2h4-2h4-2h4-----2h4-2h4-2h4------2h4-2h4-------4--2h4-2---------------------D
A--------------4---------------4---------------------------4-0h2-4p2-----------A
E----------------2---------------------------------------------------4-2-4h5-2-E

e--------------------------------------------------22-00-----------------------e
B--------------2---------------------2-------------33-00-----------------------B
G------------2---4-2-1-------------2---4-2-1-------22-11-----------------------G
D------0h2-4-----------4-----0h2-4-----------4-----00-22-----------------------D
A--2h4-------------------2h4-------------------2h4----22-----------------------A
E-----------------------------------------------------00-----------------------E

                                                                              
h  =  hammer
p  =  pull-off

enjoy :)
mammycc_05 at yahoo.com
 Comments (click here to add a non-facebook comment)
Man, thanks for tabbing this out, I've been looking everywhere for it. I don't know if this will help to get the rest of the song, but it sounds like there's the guitar part first, then a mandolin part, then the slide guitar (dobro) comes in. This is amazing, if you can get the rest of it, please post it! I know I'd sure appreciate it. Keep up the good work.
-lbk98x | 7/13/2003
I know where the other guitar parts are in the song
but it's super fast picking (or so I THINK) and I'm having trouble figuring it all out...
If I ever do though, I'll post it.
-mammy | 7/13/2003
i've pretty well figured out this first part on my own and it's easier capo'd on 2.
-ahumado | 12/23/2010
Home | FAQs | Privacy | Terms | Advertise | Contact
Top 100 Tab Sites