Give Kudos?
Are you sure you want to give kudos to TheKnul?

Add To Songbook?
Are you sure you want to add this song to your songbook?


2,746 bands | 35,276 songs
Search: Register FREE! | Login
Browse Songs:
Browse Bands:
Tool Panel
Discuss This Song

1 2 3 4 5



Ronnie Dunn - How Far To Waco Intro / Solo (Tab)
Album: Ronnie Dunn (2011)
Submitter: TheKnul (0) on 7/26/11
Month Views: 4 | Total Views: 3,157
Moderator: Ray Terry | Report This Song?
Song Tools

Comment

Songbook

Kudos

Show Chords

Print

Intro:
Trumpet Part

Guitar:
E|-----------------5---------------|
B|-------------------5-------------|
G|-4^(6)-4-2-4^(6)-----4^(6)-4-2---|
D|-------------------------------2-|
A|---------------------------------|
E|---------------------------------|

Trumpet Part

Guitar:
E|-----------------5---------------|
B|-------------------5-------------|
G|-4^(6)-4-2-4^(6)-----4^(6)-4-2---|
D|-------------------------------2-|
A|---------------------------------|
E|---------------------------------|


Solo:
E|-9h10-14--------10-------------------------------------------------|
B|----------10h12---------10-----------------------------------------|
G|-------------------9h11----9h11p9---------------9--9--9------------|
D|----------------------------------11-9-7-9^(11)-11-11-11-9^(11)-9-7|
A|-------------------------------------------------------------------|
E|-------------------------------------------------------------------|

E|-------------------------------|
B|-----5-----9------12-12^-------|
G|-------------------------------|
D|-4/6---6/9---9/12----12^-------|
A|-------------------------------|
E|-------------------------------|
                             How Far to Waco...

 Comments (click here to add a non-facebook comment)
Home | FAQs | Privacy | Terms | Advertise | Contact
Top 100 Tab Sites