Give Kudos?
Are you sure you want to give kudos to cletus?

Add To Songbook?
Are you sure you want to add this song to your songbook?


2,732 bands | 35,202 songs
Search: Register FREE! | Login
Browse Songs:
Browse Bands:
Tool Panel
Discuss This Song

1 2 3 4 5



Rosanne Cash - Tennessee Flattop Box (Lead)
Submitter: cletus (0) on 1/7/03 3 comments
Month Views: 2 | Total Views: 20,663
Sound Byte: Listen
Moderator: josielittle | Report This Song?
Song Tools

Comment

Songbook

Kudos

Show Chords

Print

    x  =  muted click             h  =  hammer-on

    p  =  pulloff                 /  =  slide up
   
  pbr  =  pre-bend & release      \  =  slide down
  
   br  =  bend & release         bh  =  bend & hold

Tennessee Flattop Box Lead
Note:  Recording is capo'd first fret. To use capo, all notes relative 
to capo position.

E----------------------------------------------------|
B----------------------------------------------------|
G-----------------------------------2-2--------------|
D---------0---------0---------0--4-----4--4/5--4--2--|
A--0-2-4-----0-2-4-----0-2-4-------------------------|
E----------------------------------------------------|


E----------------------------------------------------|
B--1/2--2-2-----1/2--2-2-----1/2---------------------|
G--1/2--2-2---0-1/2--2-2---0-1/2-0-------------------|
D-----------2------------2----------4-2-0------------|
A----------------------------------------------------|
E----------------------------------------------------|


E----------------------------------------------------|
B----------------------------------------------------|
G-----------------------------------2-2--------------|
D---------0---------0---------0--4-----4--4/5--4--2--|
A--0-2-4-----0-2-4-----0-2-4-------------------------|
E----------------------------------------------------|

E----------------------------------------------------|
B--1/2--2-2-----1/2--2-2-----1/2---------------------|
G--1/2--2-2---0-1/2--2-2---0-1/2-0-------------------|
D-----------2------------2----------4-2-0--0---------|
A---------------------------------------------4-2-0--|
E----------------------------------------------------|

                         (mute with palm)
E----------------------------------------------------|
B----------------------------------------------------|
G----------------------------------------------------|
D--4p2--4p2----4p2--4p2------------------------------|
A-----------0-----------0----------------------------|
E----------------------------------------------------|
 Comments (click here to add a non-facebook comment)
sounds good to me

-wildBill2004 | 1/8/2003
Very good job!! You're quite the picker...
-lmofle | 11/6/2003
I think you did a very good job on it. you can just play along with the CD. Very good.
-Billy Robbins | 11/14/2003
Home | FAQs | Privacy | Terms | Advertise | Contact
Top 100 Tab Sites