Give Kudos?
Are you sure you want to give kudos to rvacher?

Add To Songbook?
Are you sure you want to add this song to your songbook?


2,728 bands | 35,169 songs
Search: Register FREE! | Login
Browse Songs:
Browse Bands:
Tool Panel
Discuss This Song

1 2 3 4 5



Sabastian Roberts - It's Still Country To Me (Tab)
Submitter: rvacher (2) on 5/4/11
Month Views: 14 | Total Views: 1,834
Help! We need a moderator for this artist. | Report This Song?
Song Tools

Comment

Songbook

Kudos

Show Chords

Print

It's still country to me by Sabastian Roberts
Heard this song on the radio last week 
so I recorded the radio for a while until
it came on again to get it right. 
Hope it works for you.

E---------------------------------|
B---------------------------------|
G---2---4-------------4-----------| 
D---2---4-------4h6p4-------------|
A---0---4---4h6-------------------|
E---------------------------------|
    A   B

About five ten years ago ya never heard a banjo
Now ya turn on the radio and hear it take a solo
And if ya played six strings well ya had to make it twaaaaaang
Now it's AC/DC with a shot'a Hank

E---------------------------------|
B---------------------------------|
G--7----9---------------9---------|
D--7----9--------9H11P9-----------|
A--5----7---9H11------------------|
E---------------------------------|
   D    E
Nashville calls it the next thaaaaang

E---------------------------------|
B---------------------------------|
G---------------------------------|
D-7h9p7---------------------------|
A-------9>7-5H7>9-5b--------------|
E--------------------7------------|

But I don't think that nothin's changed cuz

CHORUS
B 	  A               E/G#
It's still country to me
        A			B	
Still roots strong and deep
         A		E			D>E
Still music ta drink by, raise your lighter to the sky
B 	  A               E/G#    A       B
That screamin' guitar, and hillbilly bars
A                                E	
If it gets you on your feet
A			E		B
Well then it's still country to me




Well I gotta thank my daddy cuz he turned me on to Waylon
And my Friday night buddies for their crankin' Van Halen
E---------------------------------|
B-7H10H12-X 4-7H10H12>>SLIDE>>----|
G---------------------------------|
D---------------------------------|
A---------------------------------|
E---------------------------------|


My grampa taught me a few fiddle licks
E----14-16------------------------|
B-17b------14b--------------------|
G--------------16-14-16-----------|
D---------------------------------|
A---------------------------------|
E---------------------------------|

Now I run em through an amp and it sounds like this

( PICK ZIZZZZZZH DOWN STRINGS)

You may call it the latest thang
But I don't think that nothin's changed cuz

CHORUS

It's still country to me
Still roots strong and deep
Still music ta drink by, raise your lighter to the sky
That screamin' guitar, and hillbilly bars
If it gets you on your feet	
Well then it's still country to me

GUITAR SOLO
B  A  E/G#  A  B  A  E  D>E
B  A  E/G#  A  B  A  E     A E

CHORUS 

It's still country to me
Still roots strong and deep
Still music ta drink by, raise your lighter to the sky
It's a hillbilly thing y'all, if ya know what I mean
If it gets you on your feet (it's still country)





CHORUS

Well then it's still country to me
Still roots strong and deep
Still music ta drink by, raise your lighter to the sky
That screamin' guitar, and hillbilly bars
If it gets you on your feet
Well then it's still country to me


It's still country to me

It's still country to me


E-0-------0------------------------|
B-0-------0------------------------|
G-1-------4------------------------|
D-2-------6------------------------|
A-2-------6------------------------|
E-4-------x------------------------|
E/G#  or (this) or you can play E instead if you have a bass player that plays the G#
 Comments (click here to add a non-facebook comment)
Home | FAQs | Privacy | Terms | Advertise | Contact
Top 100 Tab Sites