Give Kudos?
Are you sure you want to give kudos to axehappy?

Add To Songbook?
Are you sure you want to add this song to your songbook?


2,722 bands | 35,144 songs
Search: Register FREE! | Login
Browse Songs:
Browse Bands:
Tool Panel
Discuss This Song

1 2 3 4 5



Sawyer Brown - Some Girls Do (Lead)
Album: The Dirt Road (1992)
Submitter: axehappy (16) on 4/21/03
Month Views: 12 | Total Views: 10,155
Moderator: seminole9300 | Report This Song?
Song Tools

Comment

Songbook

Kudos

Show Chords

Print

Sawyer Brown  -  Some Girls Do  (lead)

By axehappy  -  axehappy at countrytabs.com


**********************************************************************************

h   =   hammer-on                                 p   =   pulloff

/   =   slide up                                  \   =   slide down

bh  =   bend & hold                               br  =   bend & release

**********************************************************************************



INTRO


E---------------------------------------------------
B------3-3-3--3-3-3--5-3------3-3-3---3-------------
G--2---2-2-2--2-2-2--5-4--2---2-2-2h4-2-2---2-------
D--2h4----4----4-----5-5--2h4----4------4p2-0-2/4---
A---------------------------------------------------
E---------------------------------------------------


E-----------------------------------------------------------|
B------3-3-3--3-3-3--5-3------3-3-3---3----------3----------|
G--2---2-2-2--2-2-2--5-4--2---2-2-2h4-2-2---2----2------2---|
D--2h4----4----4-----5-5--2h4----4------4p2-0-2/4-4\2-0-2---|
A-------------------------------------------------------0---|
E-----------------------------------------------------------|



LEAD SOLO


E------------------------------10----10---------------------------------------
B--12-14-14bh-14-14br-12-10----10h12-10h12-10---------------------------------
G----------------------------12--------------12-11-12-11h12-11-9--9-11h12-11--
D---------------------------------------------------------------12------------
A-----------------------------------------------------------------------------
E-----------------------------------------------------------------------------

   harmonized~~~~~~~~~~~~~~~~~~~~~~~~~~~~~~~~~~~~~~~~~~~~~~~~~~~~~~~

E------------------------------10----10-------------10-----12-----14---|
B--12/14-14bh-14-14br-12-10----10h12-10h12-10--------------------------|
G----------------------------12--------------12-11----11/12--12/14-----|
D----------------------------------------------------------------------|
A----------------------------------------------------------------------|
E----------------------------------------------------------------------|

 Comments (click here to add a non-facebook comment)
Home | FAQs | Privacy | Terms | Advertise | Contact
Top 100 Tab Sites