Give Kudos?
Are you sure you want to give kudos to WildCard76?

Add To Songbook?
Are you sure you want to add this song to your songbook?


2,635 bands | 34,516 songs
Search: Register FREE! | Login
Browse Songs:
Browse Bands:
Tool Panel
Discuss This Song

1 2 3 4 5





Shenandoah - Church On Cumberland Road (Intro)
Submitter: WildCard76 (101) on 5/20/04
Month Views: 18 | Total Views: 6,132
Moderator: dray149 | Report This Song?
Song Tools

Comment

Songbook

Kudos

Show Chords

Print

CHURCH ON CUMBERLAND ROAD
Shenandoah
Album: Now And Then
Submitted by: Christopher R.
05-20-04


d = downstroke
u = upstroke


INTRO 

Capo 3rd Fret


    (D)                (D)

    d  u  d  d     d  u  d  d  d
E---x--x--x--x-----x--x--x--x--x-------------
B---x--x--x--x-----x--x--x--x--x-------------
G---2--2--4--2-----2--2--4--5--4-------------
D---0--0--0--0-----0--0--0--0--0-------------     (play twice)
A--------------------------------------------
E--------------------------------------------


                 OR


Capo 1st Fret

    (E)               (E) 

    d  u  d  d     d  u  d  d  d
E----------------------------------------------
B----------------------------------------------
G----------------------------------------------
D----------------------------------------------    (play twice)
A---2--2--4--2-----2--2--4--5--4---------------
E---0--0--0--0-----0--0--0--0--0---------------


 Comments (click here to add a non-facebook comment)
Home | FAQs | Privacy | Terms | Advertise | Contact
Top 100 Tab Sites