Give Kudos?
Are you sure you want to give kudos to taylor7458?

Add To Songbook?
Are you sure you want to add this song to your songbook?


2,747 bands | 35,276 songs
Search: Register FREE! | Login
Browse Songs:
Browse Bands:
Tool Panel
Discuss This Song

1 2 3 4 5



Shooter Jennings - Manifest#1 (Lead)
Submitter: taylor7458 (1) on 5/25/10
Month Views: 3 | Total Views: 2,965
Moderator: Buckeem | Report This Song?
Song Tools

Comment

Songbook

Kudos

Show Chords

Print

Manifesto #1 Shooter Jennings  Solo
As always please correct if wrong.  This solo is BASIC
the actual solo is done on a steel guitar but this is 
what I play live and it works.  - Jack

------------------------------------------13----
--/13---15-13-15-13--15/17--17p15-15\13---------
------------------------------------------------
------------------------------------------------
------------------------------------------------
------------------------------------------------

------------------------------------------------
--13-------------13-15---15h17-17-17--15h17-----
-------14---12----------------------------------
------------------------------------------------
------------------------------------------------
------------------------------------------------

------------------------------------------------
--17-17--15h17-17-17-17-17-17-17--15h17--17p15--
------------------------------------------------
------------------------------------------------
------------------------------------------------
------------------------------------------------

----------22-20------20-17-----20-17------------
-----15---------22---------20--------20-17-13---
--17--------------------------------------------
------------------------------------------------
------------------------------------------------
------------------------------------------------
 Comments (click here to add a non-facebook comment)
Home | FAQs | Privacy | Terms | Advertise | Contact
Top 100 Tab Sites