Give Kudos?
Are you sure you want to give kudos to matellmon?

Add To Songbook?
Are you sure you want to add this song to your songbook?


2,712 bands | 35,098 songs
Search: Register FREE! | Login
Browse Songs:
Browse Bands:
Tool Panel
Discuss This Song

1 2 3 4 5



Steve Earle - Copperhead Road (Intro)
Album: Copperhead Road (1990)
Submitter: matellmon (77) on 2/11/02 1 comment
Month Views: 39 | Total Views: 28,225
Moderator: schnips | Report This Song?
Song Tools

Comment

Songbook

Kudos

Show Chords

Print

COPPERHEAD ROAD
STEVE EARLE

TABBED BY MATELLMON

-----------------------------------------------------------
INTRO
SYNTH. ARRANGED FOR GUITAR
 
|---------------------------------------------------------|
|-------12H13P12--------12H13--12H13P12-------------------|
|---14-----------12-14------------------12--12--14--12H14-|
|-0-------------------------------------------------------|
|---------------------------------------------------------|
|---------------------------------------------------------|

|-------------------------------|
|-12H15---12H15P12--------------|
|--------------------12--12H14--|
|-----0-------------------------|
|-------------------------------|
|-------------------------------|

 MANDOLIN ARRANGED FOR GUITAR
|-2-2-----2-|-----2---2-2-|-----2-2-2-2-2-2-|
|-3-3-3-3-3-|-3-3-3-3-3-3-|-3---3-3-3-3-3-3-|
|-2-2-2-0-2-|-4-2-0-2-2-2-|-2H5-5-5-4-2-0-0-|
|-0-0-0-0---|-0-0-0-0-0---|-0---0---0---0---|
|-----------|-------------|-----------------|
|-----------|-------------|-----------------|

|-2-2-2-2---2-2-2-|-2-3-3-3-----3---|-3-3-3-3-3---2-|
|-3-3-3-3-3-3-3-3-|-3-3-3-3-3-3-3-3-|-3-3-3-3-3-3-3-|
|-0-0-0-0-0-2-2-2-|-2-4-4-4-4-4-4-4-|-5-5-5-5-4-4-2-|
|-0---0---0---0---|-0---0---0-0-0-0-|-0---0---0-0---|
|-----------------|-----------------|---------------|
|-----------------|-----------------|---------------|
                                               WELL
|-2-2-----2-|-----2---3-2-|-2-2-----2-|-----2---3-2-|
|-3-3-3-3-3-|-3-3-3-3-3-3-|-3-3-3-3-3-|-3-3-3-3-3-3-|
|-2-2-2-0-2-|-4-2-0-2-2-2-|-2-2-2-0-2-|-4-2-0-2-2-2-|
|-0-0-0-0---|-0-0-0-0-0---|-0-0-0-0---|-0-0-0-0-0---|
|-----------|-------------|-----------|-------------|
|-----------|-------------|-----------|-------------|

-----------------------------------------------------------
GUITAR 
  D
1 MY  NAMES     JOHN    LEE  PETIMORE_________
2 DADDY RAN THE WHISKEY IN A BIG BLOCK DODGE
3 I VOLUNTEERED FOR THE ARMY ON MY BIRTHDAY

  D
1 SAM AS MY  DADDY  AND  HIS  DADDY BEFORE_____
2 BOUGHT IT AT  AN  AUCTION  AT  THE MASONS LODGE
3 THE DRAFT THE WHITE TRASH FIRST ROUND HERE THAT WAY
  
 D
1 YOU HARDLY EVER SAW GRANDADDY ROUND HERE
2 JOHNSON COUNTY SHERIFF PAINTED ON THE SIDE
3 I DONE TWO TOURS OF DUTY IN VEITNAM
 
 D
1 HE ONLY COME TO TOWN ABOUT TWICE A YEAR
2 JUST SHOT A COAT OF PRIMER THEN HE LOOKED IN SIDE
3 AND I CAME HOME WITH A BRAND NEW PLAN

  D
1 HE'D BUY A HUNDRED POUNDS OF YEAST AND SOME COPPER LINE
2 WELL HIM AND MY UNCLE TORE THAT ENGINE DOWN
3 I TAKE THE SEED FROM COLUMBIA AND MEXICO

  D
1 EVERYBODY KNEW THAT HE MADE MOON SHINE
2 I STILL REMEMBER THAT RUMBELIN SOUND
3 I PLANT IT UP THE HOLLER DOWN COPPERHEAD ROAD

          G5
1 NOW THE REVENUE MAN WANTED GRAND DADDY BAD
2 WELL THE SHERIFF CAME AROUND IN THE MIDDLE OF THE NIGHT
3 WELL THE DEA'S GOTTA CHOPPER IN THE AIR

     D
1 HE HEADED UP THE HOLLER WITH EVERYTHING HE HAD
2 HEARD MAMA CRYIN, KNEW SOMETHING WASNT RIGHT
3 I WAKE UP SCREAMIN LIKE IM BACK OVER THERE

          G5
1 ITS BEFORE MY TIME WELL IVE BEEN TOLD
2 HE WAS HEADED DOWN TO KNOXVILLE WITH THE WEEKLY LOAD
3 I LEARNED A THING OR TWO FROM CHARLIE DONT YOU KNOW

     D
1 HE NEVER CAME BACK FROM COPPERHEAD ROAD
2 YOU COULD SMELL THE WHISKEY BURNIN DOWN COPPERHEAD ROAD
3 YOU BETTER STAY AWAY FROM COPPERHEAD ROAD

PLAY THIS AFTER SECOND VERSE

MANDOLIN
|-2-2-----2-|-----2---2-2-|-----2-2-2-2-2-2-|-2-2-2-2---2-2-2-|-2-2-----2-|
|-3-3-3-3-3-|-3-3-3-3-3-3-|-3---3-3-3-3-3-3-|-3-3-3-3-3-3-3-3-|-3-3-3-3-3-|
|-2-2-2-0-2-|-4-2-0-2-2-2-|-2H5-5-5-4-4-2-2-|-0-0-0-0-0-2-2-2-|-2-2-2-0-2-|
|-0-0-0-0---|-0-0-0-0-0---|-0---0---0---0---|-0---0---0---0---|-0-0-0-0---|
|-----------|-------------|-----------------|-----------------|-----------|
|-----------|-------------|-----------------|-----------------|-----------|

|-----2---2-2-|-----2-2-2-2-2-2-|-2-2-2-2---2-2-2-|
|-3-3-3-3-3-3-|-3---3-3-3-3-3-3-|-3-3-3-3-3-3-3-3-|
|-4-2-0-2-2-2-|-2H5-5-5-4-4-2-2-|-0-0-0-0-0-2-2-2-|
|-0-0-0-0-0---|-0---0---0---0---|-0---0---0---0---|
|-------------|-----------------|-----------------|
|-------------|-----------------|-----------------|
                                     GUITAR
|-----------|-----------|-----------|------------|-------------------|
|-3-3-3-3-3-|-3-3-3-3-3-|-3-3-3-3-3-|------------|-------------------|
|-2-2-2-2-2-|-2-2-2-2-2-|-2-2-2-2-2-|-0H2-2-2-0-2|-4P2P0-0H2-2-4-4H5-|
|-0-0-0-0-0-|-0-0-0-0-0-|-0-0-0-0-0-|-0---0-0-0-0|-0-----0---0-0-----|
|-----------|-----------|-----------|------------|-------------------|
|-----------|-----------|-----------|------------|-------------------|

|-3-----------|-------------|-----------|-------------|-----------------|
|-------------|-------------|-----------|---------0---|-----3-----------|
|---5-5P4-0-0-|-4P2P0---2---|---0-0-2-4-|-5P4P0-----0-|-4H5---5-4P0---0-|
|---0-0-------|-0-----0---0-|-0---------|-------0-----|-------------7---|
|-------------|-------------|-----------|-------------|-----------------|
|-------------|-------------|-----------|-------------|-----------------|

|-----------------|-----------|-------------|-----------------|
|-----------------|-----------|---------0---|-----3-----------|
|-----------------|-0-0-0-2-4-|-5P4P0-----0-|-4/5---5-4P0---0-|
|-4P0-------0-0-0-|-----------|-------0-----|-------------7---|
|-----0H2H3-------|-----------|-------------|-----------------|
|-----------------|-----------|-------------|-----------------|

|---------------|-----------------|--------|
|---------------|-----------------|--------|
|---------------|-------0---------|--------|
|-4P0-------0---|-----7---4P0---0-|-2P0---0| TO VERSE 3
|-----0H2H3-----|-3/5---------3---|-----3--|
|-------------0-|-----------------|--------|

 Comments (click here to add a non-facebook comment)
some of the words r wrong
-dino555 | 3/20/2005
Home | FAQs | Privacy | Terms | Advertise | Contact
Top 100 Tab Sites