Give Kudos?
Are you sure you want to give kudos to steveroch?

Add To Songbook?
Are you sure you want to add this song to your songbook?


2,750 bands | 35,315 songs
Search: Register FREE! | Login
Browse Songs:
Browse Bands:
Tool Panel
Discuss This Song

1 2 3 4 5



Steve Earle - Mercenary Song (intro) (Intro)
Submitter: steveroch (0) on 1/15/05
Month Views: 35 | Total Views: 16,777
Moderator: schnips | Report This Song?
Song Tools

Comment

Songbook

Kudos

Show Chords

Print

intro
/
||------------------------------------
||------------------------------------
||---2--------------------------------
||---2--2--4p0------------------------
||---0----------4--5--4p2--4--0--2--2-
||-------------------------------0--0-
\

                           \
---------------------------||
---------------------------||
---------------------------||-x2-
---------------------------||
-2h4---0---2h4---0---2h4---||
---------------------------||
                           /



middle intro same as above with the 
follwing solo (you'll get it)

--------------------------------------
-10--10--10--9--7-s10--10--10--12--14-
--------------------------------------
--------------------------------------
--------------------------------------
--------------------------------------


-----------------------------------------
-14--12--14--15--14--12--12h14--10--9--7-
-----------------------------------------
-----------------------------------------
-----------------------------------------
-----------------------------------------

Just listen to the song to get the hammers 
and pull-offs correct
 Comments (click here to add a non-facebook comment)
Home | FAQs | Privacy | Terms | Advertise | Contact
Top 100 Tab Sites