Give Kudos?
Are you sure you want to give kudos to axehappy?

Add To Songbook?
Are you sure you want to add this song to your songbook?


2,722 bands | 35,151 songs
Search: Register FREE! | Login
Browse Songs:
Browse Bands:
Tool Panel
Discuss This Song

1 2 3 4 5



Steve Wariner - Some Fools Never Learn (Solo)
Album: One Good Night Deserves Another (1985)
Submitter: axehappy (49) on 2/23/06
Month Views: 23 | Total Views: 6,715
Moderator: Seandoherty | Report This Song?
Song Tools

Comment

Songbook

Kudos

Show Chords

Print


The numbers above the second line of tab are recommended fingerings.
I couldn't get the ending quite right without a G-bender so I tabbed it this way
instead of with all bends. Sounds good enough.


E--------------------------------------------------------------------------------
B--------------------------------------------------------------------------------
G-----------------------------------------------------------------4/6-6-6-6\4-4--
D--------4---6---6/8-6/8--8br-6-6-6--6br-4-6-6br-------4-6br-4----6/8-8-8-8\6-6--
A--2/4-4---4---4---------------------------------6-4h6---------4-----------------
E--------------------------------------------------------------------------------

   rake
      1 3     1  3  4  3    1    
E----14------------------------------------------------
B---x---16pbr-14-16-14---------------------------------
G--x-------------------13pbr-11-------11-13---10\8-6---
D-------------------------------11h13----13br-11\9-8---
A------------------------------------------------------
E------------------------------------------------------
 Comments (click here to add a non-facebook comment)
Home | FAQs | Privacy | Terms | Advertise | Contact
Top 100 Tab Sites